Oops, an error
Loading. Please wait.

Ohne Luft Acoustic Tab

389 views 1 this week
no commentswrite comment
1 2 3 4 5
please rate
add to favorites
launch autoscroll
font size
0
reset
how to read this tab
guitar tuner
Autoscroll
slow
fast
+/-
esc
set tempo
stop
Help us to improve Ultimate-Guitar.com Take our survey!
×
Author
Difficulty
novice
Band:   Silent Poem
Song:   Ohne Luft (Acoustic)
Album:  Sucht und Ordnung
Web:    http://www.silentpoem.de/


Tabbed by: Jeremias




Tuning: Standard



Intro

E|---------------------------------------------------------------------|
B|---------------------------------------------------------------------|
G|-----0-------0-------0-------0-------0-------0-------0-------0-----0-|
D|---9---9---5---5---7---7---4---4---9---9---5---5---7---7---4-----4---|
A|-7-------3-------5-------2-------7-------3-------5-------2-----2-----|
E|---------------------------------------------------------------------|
   let ring----------------------------------------------------------|


Verse

E|---------------------------------|
B|---------------------------------|
G|-----0-------0-------0-------0---|
D|---9---9---5---5---7---7---4---4-|
A|-7-------3-------5-------2-------|
E|---------------------------------|
   let ring----------------------|


Bridge

E|-----------|
B|-----------|
G|-5-5-5-7-7-|
D|-5-5-5-7-7-|
A|-3-3-3-5-5-|
E|-----------|


Chorus

E|----------------------------|
B|----------------------------|
G|----------------------------|
D|-2-2-10-10-10-7-7-9-9-5-4-2-|
A|-2-2-10-10-10-7-7-9-9-5-4-2-|
E|-0-0--8--8--8-5-5-7-7-3-2-0-|


Solo

E|--------------------12---------------------------------12-12-12h10----15-12-10------------|
B|-/12-12-12-12h10-------12----------------10-12-10------------------12----------12-10------|
G|-----------------12------12---------9-12----------12-9-------------------------------10-9-|
D|----------------------------12-9h12-------------------------------------------------------|
A|------------------------------------------------------------------------------------------|
E|------------------------------------------------------------------------------------------|


E|-----------------------------------------|
B|--------------10-------------------------|
G|-9-12-9h11-11----12-11h12-9-12----9-12-9-|
D|-------------------------------12--------|
A|-----------------------------------------|
E|-----------------------------------------|

Suggest correction
Give kudos to tab author, rate the tab!
1 2 3 4 5
comments
print report bad tab
guest
You may want to rate the tab now too:
select rating
Please do not post tabs as comments. Select "correction" instead!