Oops, an error
Loading. Please wait.

14 Tab

version 1
version 1

Album

Whole song

Interactive

8,250 views 6 this week
no commentswrite comment
1 2 3 4 5
please rate
add to favorites
launch autoscroll
font size
0
reset
how to read this tab
guitar tuner
Autoscroll
slow
fast
+/-
esc
set tempo
stop
Help us to improve Ultimate-Guitar.com Take our survey!
×
Contributor
Difficulty
intermediate
silent sanctuary
14
intro:
e-----------------------------------------------------------------------|
B-----------------------------------------------------------------------|
G-------3-2-----3-2-----3-2-------------3-2-----3-2-----3-2-------------|
D---3-5-----3-5-----3-5-----3-5-3-2-3-5-----3-5-----3-5-----3-5-3-2-3-5-|
A-----------------------------------------------------------------------|
E-----------------------------------------------------------------------|

e-----------------------------x-x-x-B---|
B-----------------------------x-x-x-R---|
G--3-2-----3-2-----3-2--------5-5-5-E---|
D------3-5-----3-5-----3-5-3--5-5-5-A---|
A-----------------------------3-3-3-K---|
E---------------------------

  G  D/F#  Em   C   D   Am   Bm
e--3---3-----3---3---3----3---3--|
B--3---3-----3---3---3----1---3--|
G--0---2-----0---0---2----0---2--|
D--0---0-----2---2---0----2---0--|
A--2---x-----2---3---x----0---2--|
E--3---2-----0---x---x----x---x--|

INTRO G D/F# Em C(2x) D

Verse 1
     G          Em
Inaayos ko ang iyong isipan
  C                D
Ngunit hindi ka nakikinig
       G               Em
Lahat na ng bagay ay aking ginawa
         C      D
Ngunit wala pa rin

Refrain 1
        Em       Bm
Ilang beses ko pa bang sasabihin
     G       D/F#       Em
Na wala ng kwenta ang nakaraan
       C       Am       D
Pero iyong pinipilit


CHORUS
    G        D/F#
Ikaw lang ang nais kong makasama
 Em            C
Wala na akong gusto pang balikan
 D     G          D/F#
Kahit ako’y papiliin ikaw ay umasang
 Em             C      D
Gusto kong makapiling


Verse 2
          G           Em
Lagi na lang tayong nagaaway
        C           D
Kahit hindi dapat pag-awayan
         G              Em
Tuwing ika’y lumuluha ako’y nasasaktan
       C        D
Pag nakikita kang ganyan


Refrain 2
     Em        Bm
Sige na tahan na
        G        D/F#  Em
Dahil mahal na mahal kita
           C             Am   D
Ikaw lang kasi maniwala ka

(Chorus)

Bridge
      C C/B    Am
Pero bakit ganyan
     C   C/B     Am
Tayo ay napaglaruan
        C  C/B          Am
Siguro nga’y sadyang ganyan

Adlib: G D/F# Em C D 2x
        G              D/F#          Em           C                  D
e---------------------------------------------------------------------------|
B-------8-8------------8-8--------------------------------------------------|
G-4-5-7-----7--5-4-5-7-----7-5-4-5p4--------------7-------------------------|
D------------------------------------5-----5-7-7s9-9p7s5-7s9-7s5---------5--|
A--------------------------------------5h7----------------------7-5-5h7-----|
E---------------------------------------------------------------------------|

        G            D/F#         Em       C                  D
e-------------------10s12-10-8-7-8p7------(12)--15-15—17-17-15-17-19--------|
B----8-10-10s12-10p8----------------8-8s10----------------------------------|
G-7h9-----------------------------------------------------------------------|
D---------------------------------------------------------------------------|
A---------------------------------------------------------------------------|
E---------------------------------------------------------------------------|

(Chorus)


 Em    D           C
Ibibigay ko ang lahat
 Em      D                 C
Pati na rin ang iyong pangarap
 Em        D           C
Sasamahan kita kahit saan
  Cm       D
Kahit saan

(Chorus)

injoy my tabs...heheheilent
Suggest correction new What's this?
You can suggest a correction to this tab. Community and Mods will review your correction and vote to approve or reject it.
comments
We did not receive enough feedback on this tab! Please rate:
print report bad tab
1 2 3 4 5
guest
You may want to rate the tab now too:
select rating
Please do not post tabs as comments. Select "correction" instead!