Oops, an error
Loading. Please wait.

Ikaw Lamang tab

version 2
version 2

Whole song

43,848 views 90 this week
1 commentread comment
1 2 3 4 5
x 3
add to favorites
×
Save as Personal and add changes to this tab that will be seen only by you. Learn more ›
×
You can save this tab as Personal to edit and correct it or add notes. All changes will be seen only by you. Learn more »
launch autoscroll
font size
0
reset
how to read this tab
guitar tuner
edit
Autoscroll
slow
fast
+/-
esc
set tempo
stop
Difficulty
IKAW LAMANG
by Silent Sanctuary
tabbed by Royce Corrige
"hi sa mga taga Samar National School!!! Rock on!!!"

Intro:
E|-------------------------------| \
B|-------------------------------|  \
G|-------------------------------|   \
D|-------------------------------|    \
A|-3-3-3----------3-3-3----------|     \     _____________________
E|------3-3-3-3-3------3-3-3-3-3-|      \   |                     |
                                         \  |tabbed from cello to |
E|---------------------------------|     /  |     guitars         |
B|---------------------------------|    /   |_____________________|
G|---------------------------------|   /
D|---------------------------------|  /
A|---------------------------------| / 
E|-5-5-5-0-0-0-0-0-5-5-5-0-0-0-0-0-|/

Verse:
E|-------------------------------|
B|-------------------------------|
G|-------------------------------|
D|-------------------------------|
A|-3-3-3----------3-3-3----------|
E|------3-3-3-3-3------3-3-3-3-3-|

E|---------------------------------|
B|---------------------------------|
G|---------------------------------|
D|---------------------------------|
A|---------------------------------|
E|-5-5-5-0-0-0-0-0-5-5-5-0-0-0-0-0-|

E|-------------------------------|
B|-------------------------------|
G|-------------------------------|
D|-------------------------------|
A|-3-3-3----------3-3-3----------|
E|------3-3-3-3-3------3-3-3-3-3-|

E|----------------------------------|
B|----------------------------------|
G|----------------------------------|
D|----------------------------------|
A|----------------------------------|
E|-5-5-5-0-0-0-0-0-5-5-5-0-0-0-0-0-5|


IKAW LAMANG (chords)

Intro :A - F#m

Verse 1: (C.P.: A - F#m)
Di ko maintindihan
Ang nilalaman ng puso
Tuwing magkahawak ang ating kamay
Pinapanalangin lagi tayong magkasama
Hinihiling bawat oras kapiling ka

Refrain: 
(DM7 - A9 - F#m)
Sa lahat ng aking ginagawa
(DM7 - A9 - F#m)
Ikaw lamang ang nasa isip ko sinta
(F - E)
Sanay di na tayo magkahiwalay
(F - E)
Kahit kailan pa man

Chorus:
(A - A9 - F#m)
Ikaw lamang ang aking minamahal
(A - A9 - F#m)
Ikaw lamang ang tangi kong inaasam
(D9 - Dm - A - F#m)
Makapiling ka habang buhay
Ikaw lamang sinta
(D9 - Dm - A - F#m)
Wala na kong hihingin pa
Wala na (D9 - Dm)

Verse 2: (C.P.: A - F#m)
Ayoko ng maulit pa
Ang nakaraang ayokong maalala
Bawat oras na wala ka
Parang mabigat na parusa
Huwag mong kalimutan na kahit nag-iba
Hindi ako tumigil magmahal sa'yo sinta

Refrain: 
(DM7 - A9 - F#m)
Sa lahat ng aking ginagawa
(DM7 - A9 - F#m)
Ikaw lamang ang nasa isip ko sinta
(F - E)
Sanay di na tayo magkahiwalay
(F - E)
Kahit kailan pa man

Chorus:
(A - A9 - F#m)
Ikaw lamang ang aking minamahal
(A - A9 - F#m)
Ikaw lamang ang tangi kong inaasam
(D9 - Dm - A - F#m)
Makapiling ka habang buhay
Ikaw lamang sinta
(D9 - Dm - A - F#m)
Wala na kong hihingin pa
Wala na (D9 - Dm)

Instrumental: (F - E - F - E)2x

Chorus:
(A - A9 - F#m)
Ikaw lamang ang aking minamahal
(A - A9 - F#m)
Ikaw lamang ang tangi kong inaasam
(D9 - Dm - A - F#m)
Makapiling ka habang buhay
Ikaw lamang sinta
(D9 - Dm - A - F#m)
Wala na kong hihingin pa
Wala na (D9 - Dm)


rate po nyo to...


            
            
Suggest correction
Creating personal tab
Creating personal tab
You can edit any tab online and save it as your Personal.

You can edit, replace or remove any tab part or add personal notes – all changes will be seen only by you.

Personal tabs can be accessed anytime from any device, even offline.
Learn more »
Give kudos to tab author, rate the tab!
1 2 3 4 5
comments
print report bad tab
1 comment total.
0 reply
disenchanted85 10 Mar 13, 2013 03:20 AM

galing galing galing

guest
Wanna post a correction for this tab? Suggest correction