Oops, an error
Loading. Please wait.

Ikaw Lamang chords

version 4
version 4

Whole song

181,530 views 228 this week
7 commentsread comments
1 2 3 4 5
x 25
add to favorites
×
Save as Personal and add changes to this tab that will be seen only by you. Learn more ›
×
You can save this tab as Personal to edit and correct it or add notes. All changes will be seen only by you. Learn more »
launch autoscroll
font size
0
reset
transpose
0
reset
simplify chords
display chords
guitar tuner
edit
Autoscroll
slow
fast
+/-
esc
set tempo
stop
Author
Strumming
There is no strumming pattern for this song yet. and get +5 IQ
-------------------------------------------------------------------------------
                             Ikaw Lamang - Silent Sanctuary
-------------------------------------------------------------------------------
Tabbed by: F. Ken Cogue
Email: iverk3n@yahoo.com

Tuning: Standard


[Intro] Bass
 
G|--------------------------------------------------------------------|
D|--------------------------------------------------------------------|
A|--000----------000----------222----------444------------------------|
E|-------0000-0-------0000-0-------2222-2-------4444-4----------------|


[Verse I]

  A 
  Di ko maintindihan 
  F#m 
  Ang nilalaman ng puso 
  A                     F#m 
  Tuwing magkahawak ang ating kamay 
  A                   F#m 
  Pinapanalangin lagi tayong magkasama 
  A                      F#m 
  Hinihiling bawat oras ka piling ka 


[Pre-Chorus]

  DM7          A9           F#m 
  Sa lahat  ng aking  ginagawa 
  DM7                   A9        F#m 
  Ikaw lamang ang nasa isip ko sinta 
  F                 E 
  Sana'y di na tayo magkahiwalay 
  F               Esus-E 
  Kahit kailan pa man


[Chorus] 

  A                     F#m 
  Ikaw lamang ang aking minamahal 
  A                     F#m 
  Ikaw lamang ang tangi kong inaasam 
  Dm6          Dm 
  Makapiling ka habang buhay 
  A           F#m 
  Ikaw lamang sinta 
  Dm6         Dm 
  Wala na kong hihingin pa 
  A    F#m  Dm6 Dm 
  Wala na ..huh hhohhhh


[Instrumental] Bass

G|---------------------------------------------------------------|
D|---------------------------------------------------------------|
A|-----7-----------------------2s4-2-2-0--------2s4-2-2-0--------| 2x
E|--55---5-5s7-7-5-454--0-2--------------0-2---------------4-5---|


[Verse 2]

  A (let it ring)
  Ayoko ng maulit pa
  F#m
  Ang nakaraang ayokong maalala
  A               F#m
  Bawat oras na wala ka
 (F#m)
  Parang mabigat na parusa
  A                         F#m  
  Huwag mong kakalimutan na kahit nag-iba
  A                      F#m
  Hindi ako tumigil magmahal sayo sinta


[Pre-Chorus]

  DM7          A9           F#m 
  Sa lahat  ng aking  ginagawa 
  DM7                   A9        F#m 
  Ikaw lamang ang nasa isip ko sinta 
  F                 E 
  Sana'y di na tayo magkahiwalay 
  F               Esus-E 
  Kahit kailan pa man


[Chorus]

  A                     F#m 
  Ikaw lamang ang aking minamahal 
  A                     F#m 
  Ikaw lamang ang tangi kong inaasam 
  Dm6          Dm 
  Makapiling ka habang buhay 
  A           F#m 
  Ikaw lamang sinta 
  Dm6         Dm 
  Wala na kong hihingin pa 
  A    F#m  Dm6 Dm 
  Wala na ..huh hhohhhh


[Bridge]

 In the song, a violin is used but you can use a guitar if you like...

e|---5---5555---444444---5555555---4444444-------------------------|
B|---6---6666---555555---6666666---5555555-------------------------|
G|---5---5555---444444---5555555---4444444-------------------------|
D|---7---7777---666666---7777777---6666666-------------------------|
A|---8---8888---777777---8888888---7777777-------------------------|
E|---5---5555---444444---5555555---4444444-------------------------|
      <<<<<<<<>>>>>>>>>


e|---55555555555---44444444444---5555555555555---7-7-77-7-777777--|
B|---66666666666---55555555555---6666666666666---9-9-99-9-999999--|
G|---55555555555---44444444444---5555555555555---9-9-99-9-999999--|
D|---77777777777---66666666666---7777777777777---9-9-99-9-999999--|
A|---88888888888---77777777777---8888888888888---7-7-77-7-777777--|
E|---55555555555---44444444444---5555555555555--------------------|
                 <<<<<<<<>>>>>>>>>


[Chorus]

  A                     F#m 
  Ikaw lamang ang aking minamahal 
  A                     F#m 
  Ikaw lamang ang tangi kong inaasam 
  Dm6          Dm 
  Makapiling ka habang buhay 
  A           F#m 
  Ikaw lamang sinta 
  Dm6         Dm 
  Wala na kong hihingin pa 
  A    F#m  Dm6 Dm 
  Wala na ..huh hhohhhh...


************************************

| s  Slide

************************************

            
            
Suggest correction
Creating personal tab
Creating personal tab
You can edit any tab online and save it as your Personal.

You can edit, replace or remove any tab part or add personal notes – all changes will be seen only by you.

Personal tabs can be accessed anytime from any device, even offline.
Learn more »
comments
print report bad tab
7 comments total. Showing first comments.
+1 reply
SundaySt 61 Oct 27, 2007 06:40 AM

nice tab..pro i think dpat d na dm6 ung isang chord..cguro dpat DM7 na din xa..it sounds better to me that way..haha

+2 reply
Don123_20 10 Jan 23, 2011 02:15 AM

pre sa tingin q gan2 ung sa intro ehh !!

G|-------------------------------------------------------------|
D|--000----------000-------------------------------------------|
A|-------0000-0-------0000-0-------222-----------222-----------|
E|--------------------------------------2222-2-------2222-2----|

0 reply
iverken 104 Jan 23, 2011 02:50 AM

mali lang pagka-tab intro mga tol.. haha sori2

guest
You may want to rate the tab now too:
select rating
Wanna post a correction for this tab? Suggest correction