Oops, an error
Loading. Please wait.

Kundiman Tab

version 2
version 2

Whole song

95,722 views 126 this week
6 commentsread comments
1 2 3 4 5
accurate
x 22
add to favorites
launch autoscroll
font size
0
reset
how to read this tab
guitar tuner
Autoscroll
slow
fast
+/-
esc
set tempo
stop
Help us to improve Ultimate-Guitar.com Take our survey!
×
Capo
2nd fret
Title:     Kundiman
Artist:    Silent Sanctuary
Tabbed by: Gilbert C. Bumanlag

Capo on 2nd fret (all chords relative to the capo)

[Intro]

e|----------------------------------0-----|
B|---------------------------2----2--2----|
G|------2--------4-2-4-----2-----2--------| 2X
D|----0--------2---------0------0---------|
A|--2------2/4----------------------------|
E|----------------------------------------|


[Verse]

e|--0--0--0--|
B|--0--0--2--|
G|--2-–4--2--|
D|--0--2--0--|
A|--2--4-----|
E|-----------|
Para kang asukal...


[Refrain]

e|--0----0----0----0--|
B|--0----0----0----0--|
G|--2---–4----2----1--|
D|--0----2----0----2--|
A|--2----4----2----2--|
E|-----------------0--|
Kaya’t ‘wag magtataka...


[Chorus]

e|--0-0-0--|
B|--3-0-0--|
G|--2-1–2--|
D|--0-2-2--|
A|----2-X--|
E|----0-2--|
Kundiman tayo...

e|--0----0--|
B|--3----0--|
G|--2----1--|
D|--0----2--|
A|-------2--|
E|-------0--|
Dahil ang tanging...

e|--0--0--0--|
B|--0--0--2--|
G|--2-–4--2--|
D|--0--2--0--|
A|--2--4-----|
E|-----------|
Ay ikaw...


[Bridge]

e|--0----2----0----|
B|--2----2----2----|
G|--2---–2----2----|
D|--0----0----0----|
A|-----------------|
E|-----------------|
Bahala na..

e|--2~-2----------|
B|--2~-2----------|
G|--3~-3----4-----|
D|--4~-4----4-----|
A|--4~-4----2-----|
E|--2~-2----------|
Munang magsalita..

e|--------------|
B|--3----2------|
G|--4----2------|
D|--5----4------|
A|--5----4------|
E|--3----2------|

Hayaan na muna natin..

e|------------|
B|--1----0----|
G|--2----1----|
D|--3----2----|
A|--3----2----|
E|--1----0----|
Tadhana..


[Instrumental]

e|--0-0----0-0-0--0-0----0-0----|
B|--0-0----0-0-0--0-0----0-0----|
G|--6-9----6-4-2--6-9----6-9----|
D|--7-9----7-4-2--7-9----7-9----|
A|--5-7----5-2-0--5-7----5-7----|
E|------------------------------|

e|--0-0----0-0-0--0-0----0-0-0--|
B|--0-0----0-0-0--0-0----3-5-0--|
G|--6-9----6-4-2--6-9----2-4-1--|
D|--7-9----7-4-2--7-9----0-X-2--|
A|--5-7----5-2-0--5-7----2-4-2--|
E|---------------------------0--|

(Repeat chorus)


[Ending]

e|--0--|
B|--2--|
G|--2--|
D|--0--|
A|-----|
E|-----|

Ang lupet talaga ng kanta na 'to. Wala kasi akong makitang tamang intro 'tsaka ung may 
kaya gumawa na lang ako. Sigurado ako dito. Hi nga pala kay Angelica!



************************************

| /  Slide up
| ~  Vibrato 

************************************
Suggest correction
What's this?
You can suggest a correction to this tab. Community and Mods will review your correction and vote to approve or reject it.
comments
print report bad tab
6 comments total. Showing first comments.
0 reply
chonghits 11 wrote on January 9 2009, 09:59 pm

nice work! best tab here. easy enough to understand. very accurate!

0 reply
guitar_heero 22 wrote on February 21 2009, 09:32 am

kelangan b naka capo?..panu nman ung mga beginners n walang capo at umaasa nlng sa gitara lng?...hehe

0 reply
emo_helzter 12 wrote on March 17 2009, 04:09 am

kahit wala nang capo sa intro, ok na. hehehe

guest
You may want to rate the tab now too:
select rating
Please do not post tabs as comments. Select "correction" instead!