Oops, an error
Loading. Please wait.

Sayo Orchestra chords

version 2
version 2

Whole song

1,466 views 3 this week
1 commentread comment
1 2 3 4 5
3 more votes to show rating
add to favorites
×
Save as Personal and add changes to this tab that will be seen only by you. Learn more ›
×
You can save this tab as Personal to edit and correct it or add notes. All changes will be seen only by you. Learn more »
launch autoscroll
font size
0
reset
transpose
0
reset
display chords
guitar tuner
edit
Autoscroll
slow
fast
+/-
esc
set tempo
stop
Author
Difficulty
Strumming
There is no strumming pattern for this song yet. and get +5 IQ
Piano Version Intro:

e|------------------------------------|
B|----------------------13--13-----10-|
G|--10--10--10--12--12---------12-----|
D|---------------------------------7--|
A|--8---------------------------------|
E|------------------------------------|

e|------------------------------10-----|
B|----------------------13--13------11-|
G|--10--10--10--12--12-----------------|
D|----------------------------------7--|
A|--8----------------------------------|
E|-------------------------------------|

Orchestra Version Inro: C - F x2

     C         F
Minsan oo minsan hindi
     C         F
Minsan tama minsan mali
     C         F
Umaabante, umaatras
     C         F
Kilos mong namimintas
     F          A
Kung tunay nga ang pag-ibig mo
     C          F        
Kaya mo bang isigaw
     C          F
iparating sa mundo


Chorus:
     F        A
Tumingin saking mata 
     C        D
Magtapat ng nadarama
     F        A
Di gusto ika'y mawala
     C           F
Dahil handa akong ibigin ka
     C                  F 
Kung maging tayo sa'yo na ang puso ko


C - F x2

       C          F
Walang ibang tatanggapin
       C          F
Ikaw at ikaw parin
       C          F
May gulo ba sa iyong isipan
       C          F
Di tugma sa nararamdaman
       F                    A - C    
Kung tunay nga ang pag-ibig mo


Chorus:

     F        A
Tumingin saking mata 
     C        D
Magtapat ng nadarama
     F        A
Di gusto ika'y mawala
     C           F
Dahil handa akong ibigin ka
     C             C (Break)     
Kung maging tayo


Bridge:
     F           A
Kaylangan ba kitang iwasan
     F               A
Sa tuwing lalapit may paalam
     C          F
Ibang anyo sa karamihan
     A                    C              D
Iba rin pag tayo, iba rin pag tayo lang ah


Chorus:

     F        A
Tumingin saking mata 
     C        D
Magtapat ng nadarama
     F        A
Di gusto ika'y mawala
     C           F
Dahil handa akong ibigin ka
     C            F      
Kung maging tayo
     C            F      
Kung maging tayo
     C            F
Sa'yo na ang puso ko

C - F (Hanggang sa matapos ^_^)

Violin/Cello? Part:
e|--------------------|
B|---11--12--14-------|
G|--------------------|
D|--------------------|    
A|--------------------|
E|--------------------|

e|------------------------------------|
B|----------------------13--13-----10-|
G|--10--10--10--12--12---------12-----|
D|---------------------------------7--|
A|--8---------------------------------|
E|------------------------------------|

e|------------------------------10-----|
B|----------------------13--13------11-|
G|--10--10--10--12--12-----------------|
D|----------------------------------7--|
A|--8----------------------------------|
E|-------------------------------------|

            
            
Suggest correction
Creating personal tab
Creating personal tab
You can edit any tab online and save it as your Personal.

You can edit, replace or remove any tab part or add personal notes – all changes will be seen only by you.

Personal tabs can be accessed anytime from any device, even offline.
Learn more »
Give kudos to tab author, rate the tab!
1 2 3 4 5
comments
print report bad tab
1 comment total.
0 reply
JhanuzOne 52 Jun 18, 2014 04:18 PM

wala sa tono yung chorus

guest
You may want to rate the tab now too:
select rating
Wanna post a correction for this tab? Suggest correction