Oops, an error
Loading. Please wait.

Sayo chords

version 4
version 4

Whole song

8,496 views 120 this week
no commentswrite comment
1 2 3 4 5
2 more votes to show rating
add to favorites
×
Save as Personal and add changes to this tab that will be seen only by you. Learn more ›
×
You can save this tab as Personal to edit and correct it or add notes. All changes will be seen only by you. Learn more »
launch autoscroll
font size
0
reset
transpose
0
reset
simplify chords
display chords
guitar tuner
edit
Autoscroll
slow
fast
+/-
esc
set tempo
stop
Author
Difficulty
Strumming
There is no strumming pattern for this song yet. and get +5 IQ
----------------------------------------------------------------------------------------------------
                                          Sa’yo – Silent Sanctuary
----------------------------------------------------------------------------------------------------
 
Tabbed by: giOo18 ^^

Tuning: STANDARD

Intro:

e|------------------------------------|
B|----------------------13--13-----10-|
G|--10--10--10--12--12---------12-----|
D|---------------------------------7--|
A|--8---------------------------------|
E|------------------------------------|

e|------------------------------11-----|
B|----------------------13--13------10-|
G|--10--10--10--12--12-----------------|
D|----------------------------------7--|
A|--8----------------------------------|
E|-------------------------------------|
 
Verse 1:

 F               Bb
Minsan Oo Minsan hindi
  F               Bb
Minsan Tama Minsan Mali
  F               Bb
Umaabante Umaatras
  F               Bb
Kilos mong namimintas
            Dm           Bb
Kung Tunay nga ang Pag ibig mo
         Gm      Dm
Kaya mo bang Isigaw
     Bb         Gm       C
Iparating sa Mundo

Chorus:

      Bb           F
Tumingin Saking Mata
       Gm          Dm
Magtapat ng Nadarama
      Bb           F
di Gusto ika’y Mawala
A7      Dm
Dahil handa akong ibigin ka
       Gm
kung maging tayo
   C
‘Sayo Lang ang Puso ko’

Repeat Intro:

e|------------------------------------|
B|----------------------13--13-----10-|
G|--10--10--10--12--12---------12-----|
D|---------------------------------7--|
A|--8---------------------------------|
E|------------------------------------|

e|------------------------------11-----|
B|----------------------13--13------10-|
G|--10--10--10--12--12-----------------|
D|----------------------------------7--|
A|--8----------------------------------|
E|-------------------------------------|

Verse 2:

  F               Bb
Walang ibang Tatanggapin
  F               Bb
Ikaw at ikaw parin
Dm            Bb
May gulo ba sayong isipan
Gm              Dm
Di tugma sa nararamdaman
       Bb               C
kung tunay nga ang pag ibig mo


Chorus:

  Bb           F
Tumingin Saking Mata
       Gm          Dm
Magtapat ng Nadarama
      Bb           F
di Gusto ika’y Mawala
A7      Dm
Dahil handa akong ibigin ka
       Gm
kung maging tayo

Bridge:

Dm               Am
Kailangan ba kitang iwasan
Dm               Am
sa twing lalapit may paalam
Gm             Am
ibang anyo sa karamihan
Bbm                    Eb            C     D
iba rin pag tayo, iba rin pag tayo lang

Chorus:

  C9           G
Tumingin Saking Mata
       Am          Em
Magtapat ng Nadarama
      C9           G
di Gusto ika’y Mawala
B      Em(7)
Dahil handa akong ibigin ka
       C9        G  
kung maging tayo
       
(Kung maging tayo)
       C9        G
Kung maging tayo

(Kung maging tayo)
       Am
Kung Maging Tayo
   D
‘Sayo Lang ang Puso ko’

Outro: 
 (G-C9)

            
            
Suggest correction
Creating personal tab
Creating personal tab
You can edit any tab online and save it as your Personal.

You can edit, replace or remove any tab part or add personal notes – all changes will be seen only by you.

Personal tabs can be accessed anytime from any device, even offline.
Learn more »
Give kudos to tab author, rate the tab!
1 2 3 4 5
comments
print report bad tab
guest
You may want to rate the tab now too:
select rating
Wanna post a correction for this tab? Suggest correction