Oops, an error
Loading. Please wait.

Negrita Tab

53 views 1 this week
no commentswrite comment
1 2 3 4 5
3 more votes to show rating
add to favorites
launch autoscroll
font size
0
reset
how to read this tab
guitar tuner
Autoscroll
slow
fast
+/-
esc
set tempo
stop
Help us to improve Ultimate-Guitar.com Take our survey!
×
Va con cada acorde y su bajo natural.

     E7
E||--0----||
B||--3----||
G||--1----||
D||--2----||
A||--2----||
E||--0----||


E||----------------------|----------------------|-----------------------|
B||--3----3----3----1----|--0----0--------------|-------0h1-------------|
G||----------------------|-----------------1----|--2---------------2----|
D||----------------------|------------2---------|-----------------------|
A||----------------------|----------------------|-----------------------|
E||----------------------|----------------------|-----------------------|


-----------------|----------------------|----------------------|
-----------------|--1----3----5----3----|--1----3----0----0----|
--1----2---------|--2----4----5----4----|--2----4----0----0----|
-----------------|----------------------|----------------------|
-----------------|----------------------|----------------------|
-----------------|----------------------|----------------------|


----------------------|----------------------|-----------------||
--1----3----1----0----|--1--------------0----|--1----0---------||
--2----4----2----0----|--2----2----2----0----|--2----0---------||
----------------------|-------4----4---------|-----------------||
----------------------|----------------------|-----------------||
----------------------|----------------------|-----------------||

G
Negrita
                   E7                 Am
tu viniste en la noche de mi amargo penar
                  D7                           G
tu llegaste a mi vida y borraste la herida mi pena letal

                  E7                Am
La ilusion de mi vida es amarte no mas
      C          G                    D7
implorarte el conzuelo el calor y el ensueño
                G
que jamas pude hallar

INTRO.
Se repite el primer verso.

                  D7                    G
Separarnos hoy quiere el destino a los dos
               D7                G    E7
una pena me brinda esta separacion
                 Am                    G
hoy te alejas de mi,hoy se va mi ilusion
              Am                G
y todo es amargura para mi corazon

INTRO.

G
Negrita
    E7                            Am
pasaran muchos dias ,muchos años quiza
    D7
y grabada en mi vida llevare yo escondida
              G
tu sonrisa inmortal.

                  E7                Am
Nadie puede tu imagen de mi pecho arrancar
 C          G                    D7
adorable y cautiva estaras en mi vida
            G
hasta la eternidad
Suggest correction
Give kudos to tab author, rate the tab!
1 2 3 4 5
comments
print report bad tab
guest
You may want to rate the tab now too:
select rating
Wanna post a correction for this tab? Suggest correction