Oops, an error
Loading. Please wait.

Anas Song Tab

version 2
version 2

Whole song

1,097 views 1 this week
no commentswrite comment
1 2 3 4 5
3 more votes to show rating
add to favorites
launch autoscroll
font size
0
reset
how to read this tab
guitar tuner
Autoscroll
slow
fast
+/-
esc
set tempo
stop
Help us to improve Ultimate-Guitar.com Take our survey!
×
Author
#----------------------------------PLEASE NOTE--------------------------------#
#This file is the author's own work and represents their interpretation of the#
#song. You may only use this file for private study, scholarship, or research.#
#-----------------------------------------------------------------------------#
#-- File created with Instab - http://www.pconline.com/~smcarey/instab.html --#
#-----------------------------------------------------------------------------#

Author/Artist: Silverchair
Title: Ana's Song

\ slide down
/ slide up


Palm mute all.


Tuning (eb A D G B E), (eb, D) Down ~ 10%
Key: (E + D) 


----|-----------------------------------------------|--|
----|-----------------------------------------------|--|
----|-3--3--3--3-3-5--5--5--5-5--3--3--3--3---3--3--|--|
----|-5--5--5--5-5-5--5--5--5-5--5--5--3--5---5--3--|--|
----|--------------3--3--3--3-3--5--5--3--5---5--3--|--|
----|-----------------------------------------------|--|
  

  G1 Verse  (No Drums Intro)                                                    




----|------------------------------|
----|------------------------------|
----|------------------------------|
----|------------------------------|
----|------------------------------|
----|-7--7--16-17--16--9----11--\--|
  

  G2                                                                  




----|--------|
----|-6--6---|
----|-7--5---|
----|-8--7---|
----|-8--8---|
----|--------|
  

  G2 Prechorus                                                       





----|-0----0----0----|
----|-0----0----0----|
----|----------------|
----|----------------|
----|-7----4----12---|
----|-----------13---|
 

  Chorus                                                        




----|---------------------------|--|
----|---------------------------|--|
----|---------------------------|--|
----|---------------------------|--|
----|---------------------------|--|
----|-7----4----4-4-2-4--4--0---|--|
     

  Interlude                                                                                                     




----|------------------------------|
----|------------------------------|
----|------------------------------|
----|------------------------------|
----|-6-6--6-6--6--5-5-5-5--5-5-5--|
----|-7-7--7-7--7--6-6-4-6--6-4-4--|
 

  Mid Riff                                                                            





----|----------------------------------|----------------------------------|--|
----|----------------------------------|----------------------------------|--|
----|----------------------------------|----------------------------------|--|
----|----------------------------------|----------------------------------|--|
----|-10-10-10-10-12-12-12-12-14-14-13-|-10-10-10-10-12-12-12-12-7--7--13-|--|
----|-9--9--9--9--11-11-11-11-12-12----|-9--9--9--9--11-11-11-11-8--8-----|--|
 

  Bridge




----|------------------------------------------------|
----|------------------------------------------------|
----|------------------------------------------------|
----|----20----20----19----19--21--------------------|
----|-20----20----20----20-----19--------------------|
----|------------------------------------------------|
 

  Bridge End



----|------------------|
----|------------------|
----|------------------|
----|------------------|
----|-7-7-7----5-------|
----|-9-9-9--4---4--8--|
  

  Chorus Break                   
Suggest correction
Give kudos to tab author, rate the tab!
1 2 3 4 5
comments
print report bad tab
guest
You may want to rate the tab now too:
select rating
Wanna post a correction for this tab? Suggest correction