Oops, an error
Loading. Please wait.

Anthem For The Year 2000 Tab

version 1
version 1
16,801 views 30 this week
5 commentsread comments
1 2 3 4 5
worth learning
x 11
add to favorites
launch autoscroll
font size
0
reset
how to read this tab
guitar tuner
Tab Pro tools
  • play this tab
  • loop segment
  • change instrument
  • show fretboard
  • metronome
Autoscroll
slow
fast
+/-
esc
set tempo
stop
Band: silverchair
Song: Anthem for the Year 2000
Album: Neon Ballroom

Tabbed by Blunt Da Mack (nym101@yahoo.com)

Dropped-D tuning. 

[0:00] "studio sounds"

[0:17] drums in

[0:18] faint guitar riff

lead guitar

E|------------|
B|------------|
G|------------| (play this twice)
D|-88-77-66-5-|
A|------------|
D|------------|

[0:28] guitars in - main riff

rhythm guitar

    A  G A G  E F  C D     A  G A G  E F  C D
E|----------------------|----------------------|
B|----------------------|----------------------|
G|-----------------5----|-----------------5----|
D|--7--5-7-5--2-3--5-0--|--7--5-7-5--2-3--5-0--|
A|--7--5-7-5--2-3--3-0--|--7--5-7-5--2-3--3-0--|
D|--7--5-7-5--2-3----0--|--7--5-7-5--2-3----0--|

lead guitar 

E|------------------------|------------------------|
B|------------------------|------------------------|
G|------------------------|------------------------|
D|------------------------|------------------------|
A|-7h---------------------|--5-7h------------------|
D|------------------------|------------------------|

rhythm guitar

    A  G A G  E F  C D     A  G A G  E F  C D
E|----------------------|----------------------|
B|----------------------|----------------------|
G|-----------------5----|-----------------5----|
D|--7--5-7-5--2-3--5-0--|--7--5-7-5--2-3--5-0--|
A|--7--5-7-5--2-3--3-0--|--7--5-7-5--2-3--3-0--|
D|--7--5-7-5--2-3----0--|--7--5-7-5--2-3----0--|

lead guitar

[0:50] verse - guitars out

[1:11] main riff - guitars in

rhythm guitar
E|------------------------|------------------------|
B|------------------------|------------------------|
G|------------------------|---------------5-0------|
D|--------5---7-----------|---------7--------------|
A|--5-7-------------------|--5-7-------------------|
D|------------------------|------------------------|


    A  G A G  E F  C D     A  G A G  E F  C D
E|----------------------|----------------------|
B|----------------------|----------------------|
G|-----------------5----|-----------------5----|
D|--7--5-7-5--2-3--5-0--|--7--5-7-5--2-3--5-0--|
A|--7--5-7-5--2-3--3-0--|--7--5-7-5--2-3--3-0--|
D|--7--5-7-5--2-3----0--|--7--5-7-5--2-3----0--|
lead guitar

E|------------------------|------------------------|
B|------------------------|------------------------|
G|------------------------|------------------------|
D|------------------------|------------------------|
A|-7h---------------------|-5-7h-------------------|
D|------------------------|------------------------|

rhythm guitar

    A  G A G  E F  C D     A  G A G  E F  C D
E|----------------------|----------------------|
B|----------------------|----------------------|
G|-----------------5----|-----------------5----|
D|--7--5-7-5--2-3--5-0--|--7--5-7-5--2-3--5-0--|
A|--7--5-7-5--2-3--3-0--|--7--5-7-5--2-3--3-0--|
D|--7--5-7-5--2-3----0--|--7--5-7-5--2-3----0--|

lead guitar

E|------------------------|------------------------|
B|------------------------|------------------------|
G|------------------------|---------------5-0------|
D|--------5---7-----------|---------7--------------|
A|--5-7-------------------|--5-7-------------------|
D|------------------------|------------------------|

[1:33] bridge


E|-------|
B|-------|
G|-------|
D|-7---1-|
A|-7---1-|
D|-7---1-|
[1:39] first solo- 

lead guitar

|----------------|
|----------------|
|-------5---5---0| (play this twice)
|-5s7h----5---3--|
|----------------|
|----------------|

[1:49] verse - both guitars

|----------------|
|----------------|
|-------5---5---0| (play this four times)
|-5s7h----5---3--|
|----------------|
|----------------|
   
[2:11] 
chorus

    A  G A G  E F  C D     A  G A G  E F  C D
E|----------------------|----------------------|
B|----------------------|----------------------|
G|-----------------5----|-----------------5----|
D|--7--5-7-5--2-3--5-0--|--7--5-7-5--2-3--5-0--|
A|--7--5-7-5--2-3--3-0--|--7--5-7-5--2-3--3-0--|
D|--7--5-7-5--2-3----0--|--7--5-7-5--2-3----0--|

[2:32] bridge

E|------------|
B|------------|
G|------------| (play this twice)
D|-5---7---5-0|
A|-5---7---5-0|
D|-5---7---3-0|

[2:43] second solo

E|-------------------------------------------|
B|-------------------------------------------|
G|------------------------------7--8--10--12b|
D|-5h-6h-8-5h-6h-3-5--6--8--10---------------|
A|-------------------------------------------|
D|-------------------------------------------|

[3:16] chorus

chorus

    A  G A G  E F  C D     A  G A G  E F  C D
E|----------------------|----------------------|
B|----------------------|----------------------|
G|-----------------5----|-----------------5----|
D|--7--5-7-5--2-3--5-0--|--7--5-7-5--2-3--5-0--|
A|--7--5-7-5--2-3--3-0--|--7--5-7-5--2-3--3-0--|
D|--7--5-7-5--2-3----0--|--7--5-7-5--2-3----0--|

[3:48] end riff

E|------------|
B|------------|
G|------------| (play this twice)
D|-5---7---5-0|
A|-5---7---5-0|
D|-5---7---3-0|

[4:00] end

[4:07] song over

peace out,
Blunt Da Mack
comments
print report bad tab
5 comments total. Showing first comments.
0 reply
Neo0928 wrote on April 14 2002, 12:00 am

great

0 reply
bkgatorfan wrote on August 11 2002, 12:00 am

the riff is played in chords and u can see him do it on the video
E--------------------------------------
B--------------------------------------
G-4-4---4---4--------------------------
D-4-4---4---4---12-12---10-10----------
A-2-2-0-2-0-2-0-12-12---10-10----------
E---------------10-10-0--8--8-0--------

0 reply
tomjaques wrote on December 31 2002, 12:00 am

if you listen closely to the intro u can extra chords before it goes into repeating the A GAG EF CD chords.
i cant quite tell what they are but i think it could b sumthin like
D|0-5-7--5-7
A|0-5-7--5-7
D|0-5-7--5-7
Maybe someone could help out with this

I want to post or [tab]
guest
You may want to rate the tab now too:
select rating
Please do not post tabs as comments. Select "correction" instead!