Oops, an error
Loading. Please wait.

Dearest Helpless Tab

version 2
version 2

Whole song

Interactive

19 views 1 this week
no commentswrite comment
1 2 3 4 5
3 more votes to show rating
add to favorites
launch autoscroll
font size
0
reset
how to read this tab
guitar tuner
Autoscroll
slow
fast
+/-
esc
set tempo
stop
Help us to improve Ultimate-Guitar.com Take our survey!
×
Author
Difficulty
intermediate
Silverchair--Dearest Helpless

b : bend
s : slide
--------------------------------------


0:09
e|-----------------------------|------------------------------|
B|-----------------------------|------------------------------|
G|-----3-----------------------|-----3------------------------|
D|-------2----------5----------|-------2----------5---5b6b5---|
A|-1-1------4--5--4---4--5-5-0-|-1-1------4--5--4---4-------0-|
E|----------2--3---------3-3---|----------2--3----------------|

|-----------------------------|-----------------|
|-----------------------------|-----------------|
|-----3-----------------------|-----3-----------|
|-------2----------5----------|-------2---------|
|-1-1------4--5--4---4--5-5-0-|-1-1------4--4b5-|
|----------2--3---------3-3---|----------2--3---|

0:28 Verse
||----------------------------------------------------------------||
||----------------------------------------------------------------||
||-o------------------------------------------------------------o-||
||-o------------------------------------------------------------o-||
||---8-8-8-8-8-8-8-0-5-5-5-10-10-10-10-0-8-8-8-8---8-8-8-8--7-7---||
||---6-6-6-6-7-7-7-0-3-3-3--8--8--8--8-0-6-6-6-6---6-6-6-6--6-6---||

Dearest helpless intent's not as bad as the action
Take a breath to distort the fear in your eyes

||------------------------------------------------------------||
||------------------------------------------------------------||
||-o--------------------------------------------------------o-||
||-o--------------------------------------------------------o-||
||---8-8-8-8-8-8-8-0-5-5-5-10-10-10-10-0-8-8-8-8---8-8--7-7---||
||---6-6-6-6-7-7-7-0-3-3-3--8--8--8--8-0-6-6-6-6---6-6--6-6---||

I don't mean it to hurt
But every time I hate you I think of you first

1:06
|-----------------------------|---------------------------------|
|-----------------------------|---------------------------------|
|-----3-----------------------|-----3---------------------------|
|-------2----------5----------|-------2----------5------5b6b5---|
|-1-1------4--5--4---4--5-5-0-|-1-1------4--5--4---4--4-------0-|
|----------2--3---------3-3---|----------2--3-------------------|

He's made you blind you're better on your own

|-----------------------------|-----------------|
|-----------------------------|-----------------|
|-----3-----------------------|-----3-----------|
|-------2----------5----------|-------2---------|
|-1-1------4--5--4---4--5-5-0-|-1-1------4--4b5-|
|----------2--3---------3-3---|----------2--3---|

I'm just the kind to bring you down

1:26
||-----------------||
||-----------------||
||-o-----3-------o-||
||-o---3---------o-||
||---1-----4-4-5---||
||---------2-2-2---||

1:30 Verse
||----------------------------------------------------------------||
||----------------------------------------------------------------||
||-o------------------------------------------------------------o-||
||-o------------------------------------------------------------o-||
||---8-8-8-8-8-8-8-0-5-5-5-10-10-10-10-0-8-8-8-8---8-8-8-8--7-7---||
||---6-6-6-6-7-7-7-0-3-3-3--8--8--8--8-0-6-6-6-6---6-6-6-6--6-6---||

Equalize the pressure, it's all too much
Sex drugs and image is just enough

|--------------------------------------------------------|
|--------------------------------------------------------|
|--------------------------------------------------------|
|--------------------------------------------------------|
|-8-8-8-8-8-8-8-0-5-5-5-10-10-10-10-0-8-8-8-8---8-8--7-7-|
|-6-6-6-6-7-7-7-0-3-3-3--8--8--8--8-0-6-6-6-6---6-6--6-6-|

To get you by in the real world

1:58
|-----------------------------|------------------------------|
|-----------------------------|------------------------------|
|-----3-----------------------|-----3------------------------|
|-------2----------5----------|-------2----------5---5b6b5---|
|-1-1------4--5--4---4--5-5-0-|-1-1------4--5--4---4-------0-|
|----------2--3---------3-3---|----------2--3----------------|

He's made you blind
You're better on your own

|-----------------------------|---------------------|
|-----------------------------|---------------------|
|-----3-----------------------|-----3---------------|
|-------2----------5----------|-------2-----------5-|
|-1-1------4--5--4---4--5-5-0-|-1-1------4--5--4----|
|----------2--3---------3-3---|----------2--3-------|

I'm just the kind to bring you down

2:17
|-----------------------|-----------------------|
|-----------------------|-----------------------|
|-----3---------3-------|-----3---------3-------|
|---3---------3---------|---3---------3---------|
|-1-----3-3-1-----4-4-5-|-1-----3-3-1-----4-4-5-|
|-------2-2-------2-2-2-|-------2-2-------2-2-2-|

2:24
||-----------------------------------------------------||
||-----------------------------------------------------||
||-o-----8-----------8-----------3-----------3-------o-||
||-o---8-------0---8-------0---3-------0---3-------0-o-||
||---6-------0---6-------6---1-------4---1-------4-----||
||---------7-----------7-----------2-----------2-------||

|-------------------------------------------------|
|-------------------------------------------------|
|-----8-----------8-----------3-----------3-------|
|---8-------0---8-------0---3-------0---3-------0-|
|-6-------6---6-------6---1-------4---1-------4---|
|-------7-----------7-----------2-----------2-----|

|-----------------------------|
|-----------------------------|
|-----3-----------3-----------|
|---3-----------3-------------|
|-1-----4-4-5-1-----4--4--5s0-|
|-------2-2-2-------2--4--5s0-|

2:53                                                        
|-----------------------------|------------------------------|
|-----------------------------|------------------------------|
|-----3-----------------------|-----3------------------------|
|-------2----------5----------|-------2----------5---5b6b5---|
|-1-1------4--5--4---4--5-5-0-|-1-1------4--5--4---4-------0-|
|----------2--3---------3-3---|----------2--3----------------|

He's made you blind

||--------------------------------||
||--------------------------------||
||-o-----3-----------------------o||
||-o-------2----------5----------o||
||---1-1------4--5--4---4--5-5-0--||
||------------2--3---------3-3----||

I'm just the kind
To bring you, to bring you

                                  x3
||--------------------------------||
||--------------------------------||
||-o-----------------------------o||
||-o-----3------------6------7---o||
||---1-1---1--4--5--4---4--5---5--||
||------------2--3----------------||

He's made you blind
You're better on your own
I'm just the kind

|---------------||
|---------------||
|---------------||
|-----3---------||
|-1-1---1--4--5-||
|----------2--3-||

To bring you down

Suggest correction
Give kudos to tab author, rate the tab!
1 2 3 4 5
comments
print report bad tab
guest
You may want to rate the tab now too:
select rating
Wanna post a correction for this tab? Suggest correction