Oops, an error
Loading. Please wait.

Faultline tab

version 1
version 1

Whole song

Interactive

12,468 views 24 this week
no commentswrite comment
1 2 3 4 5
x 8
add to favorites
×
Save as Personal and add changes to this tab that will be seen only by you. Learn more ›
×
You can save this tab as Personal to edit and correct it or add notes. All changes will be seen only by you. Learn more »
launch autoscroll
font size
0
reset
how to read this tab
guitar tuner
edit
Autoscroll
slow
fast
+/-
esc
set tempo
stop
Song: Faultline
Artist: silverchair (that’s right; small “s”)
Drop-D Tuning

[Intro]
E|--------------------------------------------------|
B|-----------11---8------8--------------------------|
G|-----------10---7------7--x-x---------------------|
D|----0------8----5----5-5--x-x---------------------|
A|--0-----8--8----5----5-5--x-x---------------------|
D|------8----8----5----5-5--------------------------|

[Verse] (“unsuspectin’ brother…”)
E|-----2--3--2--0--2-2-----3-3—3p0-------------3-3-----|
B|-----3--3--3--3--3-3-----3-3-----0-1p0-------3-3-----|
G|-----2--2--2--2--2-2-----0-0-----------0-----0-0-----|
D|--0--0-------------------2-2-----------------2-2-----|
A|--0--0----------------3--3-3--------------3--3-3-----|
D|--0--0-----------------------------------------------|

E|----3---------------------------------------------|
B|----3-------11--11---8----8-----------------------|
G|----0--x-x--10--10---7----7--x-x------------------|
D|----2--x-x--8---8----5----5--x-x------------------|
A|--3-3--x-x--8---8----5--5-5--x-x------------------|
D|------------8---8----5--5-5-----------------------|

E|-----2--3--2--0--2-2-----3-3—3p0-------------3-3-----|
B|-----3--3--3--3--3-3-----3-3-----0-1p0-------3-3-----|
G|-----2--2--2--2--2-2-----0-0-----------0-----0-0-----|
D|--0--0-------------------2-2-----------------2-2-----|
A|--0--0----------------3--3-3--------------3--3-3-----|
D|--0--0-----------------------------------------------|

E|----3---------------------------------------------|
B|----3-------11--11---8----8---11--11--13-----13---|
G|----0--x-x--10--10---7----7---10--10--12-----12---|
D|----2--x-x--8---8----5----5---8---8---10-----10---|
A|--3-3--x-x--8---8----5--5-5---8---8---10--10-10---|
D|------------8---8----5--5-5---8---8---10--10-10---|

E|--------------------------------------------------|
B|-------11--11--8----------------------------------|
G|--x-x--10--10--7----------------------------------|
D|--x-x--8---8---5---3-3-5--------------------------|
A|--x-x--8---8---5---3-3-5--------------------------|
D|-------8---8---5---3-3-5--------------------------|

[Chorus] (“you’ll never see the boy…”)
E|-----------------------------------------------------|
B|-----------------------------------------------------|
G|-----------------------------------------------------|
D|--0--0-----0-------3-3--3-------1-1--1-------8-8-----|
A|--0--0-x-x-0--x-x--3-3--3--x-x--1-1--1--x-x—-8-8-----|
D|--0--0-x-x-0--x-x--3-3--3--x-x--1-1--1--x-x--8-8—----|

E|--------------------------------------------------|
B|--------------------------------------------------|
G|--------------------------------------------------|
D|--5----------------0--0-----0-------3-3--3--------|
A|--5-----------5-0--0--0-x-x-0--x-x--3-3--3--x-x---|
D|--5-5-5-5-5h7------0--0-x-x-0--x-x--3-3--3--x-x---|

E|--------------------------------------------------|
B|--------------------------------------------------|
G|--------------------------------------------------|
D|--5-5--5-------8--8-5-------8-8--10--10-------8-8-|
A|--5-5--5--x-x--8--8-5--x-x--8-8--10--10--x-x--8-8-|
D|--5-5--5--x-x--8--8-5--x-x--8-8--10--10--x-x--8-8-|

E|--------------------------------------------------|
B|--------------------------------------------------|
G|--------------------------------------------------|
D|--5---3-3-5---------------------------------------|
A|--5---3-3-5---------------------------------------|
D|--5---3-3-5---------------------------------------|

[Post Chorus] (“ooooooh…”)
E|---------------------------------------------------|
B|---------------------------------------------------|
G|---------------------------------------------------|
D|--0--0-7--7-7--7-8--8-5----------------------------|
A|--0--0-7--7-7--7-8--8-5-----------5-0--------------|
D|--0--0-7--7-7--7-8--8-5-5-5-5-5h7------------------|

E|-----------------------------------------------------|
B|-----------------------------------------------------|
G|-----------------------------------------------------|
D|--0--0-7--7-7--7-8--8-10--3333555--------------------|
A|--0--0-7--7-7--7-8--8-10--3333555--------------------|
D|--0--0-7--7-7--7-8--8-10—-3333555--------------------|
                           PM_____

Verse, Chorus, Post chorus x2
E|--------------------------------------------------|
B|--------------------------------------------------|
G|--------------------------------------------------|
D|--0-----------------------------------------------|
A|--0-----------------------------------------------|
D|--0-----------------------------------------------|
  (let ring)

[Outro Part 1]
E|-----------------------------------------------------|
B|-----------------------------------------------------|
G|-----------------------------------------------------|
D|--0------5-4-3--3---3---5----------------------------|
A|--0-000--5-4-3--3-0-3-0-5----------------------------|
D|E--0-000--5-4-3--3-0-3-0-5---------------------------|
     PM_          PM  PM
x8

E|--------------------------------------------------|
B|--------------------------------------------------|
G|---------------------5----------------------------|
D|--0--0-6-5-3-0-3-5-0-5----------0-----------------|
A|--0--0-6-5-3-0-3-5-0-3----------0-----------------|
D|--0--0-6-5-3-0-3-5-0------------0-----------------|
                     (let ring) (let ring)

[Outro Part 2]
E|-----------------------------------------------------|
B|-----------------------------------------------------|
G|-----------------------------------------------------|
D|-----------------------------------------------------|
A|----------------------------3------------------------|
D|—-0-0-0-0-0--0-0--0-0-0-3h5--------------------------|
   PM___________________

Play that a bunch of times, then:
E|-----------------------------------------------------|
B|-----------------------------------------------------|
G|-----------------------------------------------------|
D|--0-0-0-0-5-0-0-3--0-0-0-----------------------------|
A|--0-0-0-0-5-0-0-3—-0-0-0-----3-----------------------|
D|--0-0-0-0-5-0-0-3--0-0-0-3h5-------------------------|

 Occasionally toggled with this:
E|-----------------------------------------------------|
B|-----------------------------------------------------|
G|-----------------------------------------------------|
D|--0-0-0-0-5-0-0-3--0-0-0-----------------------------|
A|--0-0-0-0-5-0-0-3—-0-0-0-----3h5---------------------|
D|--0-0-0-0-5-0-0-3--0-0-0-3h5-------------------------|

 After a while, play this:
E|-----------------------------------------------------|
B|-----------------------------------------------------|
G|-----------------------------------------------------|
D|--0-0-0-6-5-3--0-3h5---------------------------------|
A|--0-0-0-6-5-3--0-3h5---------------------------------|
D|E--0-0-0-6-5-3--0-3h5--------------------------------|

E|-----------------------------------------------------|
B|-----------------------------------------------------|
G|-----------------------------------------------------|
D|--0-0-0-0-5-0-0-3--0-0-0-----------------------------|
A|--0-0-0-0-5-0-0-3—-0-0-0-----3-----------------------|
D|--0-0-0-0-5-0-0-3--0-0-0-3h5-------------------------|

E|----------------------------------------------------|
B|----------------------------------------------------|
G|----------------------------------------------------|
D|--0-0-0-0-5-0-0-3--0-0-0----------0-----------------|
A|--0-0-0-0-5-0-0-3—-0-0-0-----3h5--0-----------------|
D|--0-0-0-0-5-0-0-3--0-0-0-3h5------0-----------------|



************************************

| x   Dead note
| p   Pull-off
| h   Hammer-on
| PM  Palm mute

************************************
Suggest correction
Creating personal tab
Creating personal tab
You can edit any tab online and save it as your Personal.

You can edit, replace or remove any tab part or add personal notes – all changes will be seen only by you.

Personal tabs can be accessed anytime from any device, even offline.
Learn more »
comments
print report bad tab
guest
Wanna post a correction for this tab? Suggest correction