Oops, an error
Loading. Please wait.

One Way Mule Tab

version 5
version 5

Whole song

Interactive

19 views 3 this week
no commentswrite comment
1 2 3 4 5
2 more votes to show rating
add to favorites
launch autoscroll
font size
0
reset
how to read this tab
guitar tuner
Autoscroll
slow
fast
+/-
esc
set tempo
stop
Help us to improve Ultimate-Guitar.com Take our survey!
×
Author
Difficulty
intermediate
About this tab version
I've studied a lot of the live videos and this is the way they play it. Was this info helpful? Yes No
Silverchair
One Way Mule
Diorama (2002)

Tuning - BADGBe


[INTRO]

e|-----------------|-----------------|-----------------|---------------------------------|
B|-----------------|-----------------|-----------------|---------------------------------|
G|-----------------|-----------------|-----------------|---------------------------------|
D|-----------------|-----------------|-----------------|---------------------------------|
A|-2----2----2-2-2-|-2----2--2-2-2---|-3----3--3-/-----|-12--/12-12-10-12-12b(13)-10-12--|
B|-0----0----3-0-0-|-3----0--3-0-0---|-1----1--1-/-----|-10--/10-10-8--10-10b(11)-8--10--|


e|-----------------|-----------------|-----------------|------------------------------|
B|-----------------|-----------------|-----------------|---------------------7b(1/2)--|
G|-----------------|-----------------|-----------------|---------------------7b(1/2)--|
D|-----------------|-----------------|-----------------|------------------------------|
A|-2----2----2-2-2-|-2----2--2-2-2---|-3----3--3-/-----|-12---/12-12-10-10-9----------|
B|-0----0----3-0-0-|-3----0--3-0-0---|-1----1--1-/-----|-10---/10-10-8--8--7----------|


e|-----------------|-----------------|-----------------|---------------------------------|
B|-----------------|-----------------|-----------------|---------------------------------|
G|-----------------|-----------------|-----------------|---------------------------------|
D|-----------------|-----------------|-----------------|---------------------------------|
A|-2----2----2-2-2-|-2----2--2-2-2---|-3----3--3-/-----|-12--/12-12-10-12-12b(13)-10-12--|
B|-0----0----3-0-0-|-3----0--3-0-0---|-1----1--1-/-----|-10--/10-10-8--10-10b(11)-8--10--|


e|-----------------|-----------------|-----------------|--------------------------|
B|-----------------|-----------------|-----------------|--------------------------|
G|-----------------|-----------------|-----------------|--------------------------|
D|-----------------|-----------------|-----------------|--------------------------|
A|-2----2----2-2-2-|-2----2--2-2-2---|-3----3--3-/-----|-12--/12-12-10-10-9-9\----|
B|-0----0----3-0-0-|-3----0--3-0-0---|-1----1--1-/-----|-10--/10-10-8--8--7-7\----|

[VERSE]

e|-----------------|-----------------|-----------------|---------------------------------|
B|-----------------|-----------------|-----------------|---------------------------------|
G|-----------------|-----------------|-----------------|---------------------------------|
D|-----------------|-----------------|-----------------|---------------------------------|
A|-2----2----2-2-2-|-2----2--2-2-2---|-3----3--3-/-----|-12--/12-12-10-12-12b(13)-10-12--|
B|-0----0----3-0-0-|-3----0--3-0-0---|-1----1--1-/-----|-10--/10-10-8--10-10b(11)-8--10--|


e|-----------------|-----------------|-----------------|--------------------------|
B|-----------------|-----------------|-----------------|--------------------------|
G|-----------------|-----------------|-----------------|--------------------------|
D|-----------------|-----------------|-----------------|--------------------------|
A|-2----2----2-2-2-|-2----2--2-2-2---|-3----3--3-/-----|-12--/12-12-10-10-9-9\----|
B|-0----0----3-0-0-|-3----0--3-0-0---|-1----1--1-/-----|-10--/10-10-8--8--7-7\----|


e|-----------------|-----------------|-----------------|---------------------------------|
B|-----------------|-----------------|-----------------|---------------------------------|
G|-----------------|-----------------|-----------------|---------------------------------|
D|-----------------|-----------------|-----------------|---------------------------------|
A|-2----2----2-2-2-|-2----2--2-2-2---|-3----3--3-/-----|-12--/12-12-10-12-12b(13)-10-12--|
B|-0----0----3-0-0-|-3----0--3-0-0---|-1----1--1-/-----|-10--/10-10-8--10-10b(11)-8--10--|


e|-----------------|-----------------|-----------------|--------------|
B|-----------------|-----------------|-----------------|--------------|
G|-----------------|-----------------|-----5-------2---|-----5--------|
D|-----------------|-----------------|---5---5---2---2-|---5---5------|
A|-2----2----2-2-2-|-2----2--2-2-2---|-3-------0-------|-3-------3-5--|
B|-0----0----3-0-0-|-3----0--3-0-0---|-----------------|---------1-3--|


[CHORUS]

(Rhythm Guitar)

e|---------0-------|-----------------|-----------------|------------------|
B|-----------0-----|-----------------|---------1-------|-------------2----|
G|-----4---------4-|-----7-------2---|-----0-----0---0-|-----5-------2----|
D|---4---4-----4---|---7---7---2---2-|---3---3-----3---|---5---5---2---2--|
A|-2---------------|-5-------0-------|-3---------------|-3-------0--------|
B|-----------------|-----------------|-----------------|------------------|

(Lead Guitar)

e|-----------------|-----------------|-----------------|------------------|
B|-----------------|-----------------|-----------------|------------------|
G|-----------------|-----9h11--------|-----------------|/12------4-5-6----|
D|-----------------|-/9-------11-----|-10--------------|------------------|
A|-----------------|-----------------|-----------------|/10------2-3-4----|
B|-----------------|-----------------|-----------------|------------------|

(Rhythm Guitar)

e|---------0-------|-----------------|-----------------|--------------|
B|-----------0-----|-----------------|-----------------|--------------|
G|-----4---------4-|-----7-------2---|-----5-------7---|-----2--------|
D|---4---4-----4---|---7---7---2---2-|---5---5---7---7-|---2---2------|
A|-2---------------|-5-------0-------|-3-------5-------|-0-------3-5--|
B|-----------------|-----------------|-----------------|---------1-3--|

(Lead Guitar)

e|-----------------|-----------------|-----------------|--------------|
B|-----------------|-----------------|-----------------|--------------|
G|-----------------|-----9h11--------|-----------------|--------------|
D|-----------------|-/9-------11-----|-10------12------|-14-----------|
A|-----------------|-----------------|-----------------|--------------|
B|-----------------|-----------------|-----------------|--------------|

[BREAK]

e|-----------------|-----------------|-----------------|---------------------------------|
B|-----------------|-----------------|-----------------|---------------------------------|
G|-----------------|-----------------|-----------------|---------------------------------|
D|-----------------|-----------------|-----------------|---------------------------------|
A|-2----2----2-2-2-|-2----2--2-2-2---|-3----3--3-/-----|-12--/12-12-10-12-12b(13)-10-12--|
B|-0----0----3-0-0-|-3----0--3-0-0---|-1----1--1-/-----|-10--/10-10-8--10-10b(11)-8--10--|


e|-----------------|-----------------|-----------------|--------------|
B|-----------------|-----------------|-----------------|--------------|
G|-----------------|-----------------|-----5-------7---|-----2--------|
D|-----------------|-----------------|---5---5---7---7-|---2---2------|
A|-2----2----2-2-2-|-2----2--2-2-2---|-3-------5-------|-0-------3-5--|
B|-0----0----3-0-0-|-3----0--3-0-0---|-----------------|---------1-3--|

[VERSE II]

e|-----------------|-----------------|-----------------|---------------------------------|
B|-----------------|-----------------|-----------------|---------------------------------|
G|-----------------|-----------------|-----------------|---------------------------------|
D|-----------------|-----------------|-----------------|---------------------------------|
A|-2----2----2-2-2-|-2----2--2-2-2---|-3----3--3-/-----|-12--/12-12-10-12-12b(13)-10-12--|
B|-0----0----3-0-0-|-3----0--3-0-0---|-1----1--1-/-----|-10--/10-10-8--10-10b(11)-8--10--|


e|-----------------|-----------------|-----------------|--------------------------|
B|-----------------|-----------------|-----------------|--------------------------|
G|-----------------|-----------------|-----------------|--------------------------|
D|-----------------|-----------------|-----------------|--------------------------|
A|-2----2----2-2-2-|-2----2--2-2-2---|-3----3--3-/-----|-12--/12-12-10-10-9-9\----|
B|-0----0----3-0-0-|-3----0--3-0-0---|-1----1--1-/-----|-10--/10-10-8--8--7-7\----|


e|-----------------|-----------------|-----------------|---------------------------------|
B|-----------------|-----------------|-----------------|---------------------------------|
G|-----------------|-----------------|-----------------|---------------------------------|
D|-----------------|-----------------|-----------------|---------------------------------|
A|-2----2----2-2-2-|-2----2--2-2-2---|-3----3--3-/-----|-12--/12-12-10-12-12b(13)-10-12--|
B|-0----0----3-0-0-|-3----0--3-0-0---|-1----1--1-/-----|-10--/10-10-8--10-10b(11)-8--10--|


e|-----------------|-----------------|-----------------|--------------------------|
B|-----------------|-----------------|-----------------|--------------------------|
G|-----------------|-----------------|-----------------|--------------------------|
D|-----------------|-----------------|-----------------|--------------------------|
A|-2----2----2-2-2-|-2----2--2-2-2---|-3----3--3-/-----|-12--/12-12-10-10-9-9\----|
B|-0----0----3-0-0-|-3----0--3-0-0---|-1----1--1-/-----|-10--/10-10-8--8--7-7\----|

[CHORUS]

(Rhythm Guitar)

e|---------0-------|-----------------|-----------------|------------------|
B|-----------0-----|-----------------|---------1-------|-------------2----|
G|-----4---------4-|-----7-------2---|-----0-----0---0-|-----5-------2----|
D|---4---4-----4---|---7---7---2---2-|---3---3-----3---|---5---5---2---2--|
A|-2---------------|-5-------0-------|-3---------------|-3-------0--------|
B|-----------------|-----------------|-----------------|------------------|

(Lead Guitar)

e|-----------------|-----------------|-----------------|------------------|
B|-----------------|-----------------|-----------------|------------------|
G|-----------------|-----9h11--------|-----------------|/12------4-5-6----|
D|-----------------|-/9-------11-----|-10--------------|------------------|
A|-----------------|-----------------|-----------------|/10------2-3-4----|
B|-----------------|-----------------|-----------------|------------------|

(Rhythm Guitar)

e|---------0-------|-----------------|-----------------|--------------|
B|-----------0-----|-----------------|-----------------|--------------|
G|-----4---------4-|-----7-------2---|-----5-------7---|-----2--------|
D|---4---4-----4---|---7---7---2---2-|---5---5---7---7-|---2---2------|
A|-2---------------|-5-------0-------|-3-------5-------|-0-------3-5--|
B|-----------------|-----------------|-----------------|---------1-3--|

(Lead Guitar)

e|-----------------|-----------------|-----------------|--------------|
B|-----------------|-----------------|-----------------|--------------|
G|-----------------|-----9h11--------|-----------------|--------------|
D|-----------------|-/9-------11-----|-10------12------|-14-----------|
A|-----------------|-----------------|-----------------|--------------|
B|-----------------|-----------------|-----------------|--------------|

(Rhythm Guitar)

e|---------0-------|-----------------|-----------------|-----------------|
B|-----------0-----|-----------------|---------1-------|-------------2---|
G|-----4---------4-|-----7-----2-----|-----0-----0---0-|-----5-------2---|
D|---4---4-----4---|---7---7-x-2-----|---3---3-----3---|---5---5---2---2-|
A|-2---------------|-5-------x-0-----|-3---------------|-3-------0-------|
B|-----------------|-----------------|-----------------|-----------------|

(Lead Guitar)

e|-----------------|-----------------|-----------------|-----------------|
B|-----------------|-----------------|-----------------|-----------------|
G|-----------------|----9h11-x-12----|-----------------|/12------7-6-5---|
D|-----------------|/9-------x-------|-10--------------|-----------------|
A|-----------------|-----------10----|-----------------|/10------5-4-3---|
B|-----------------|-----------------|-----------------|-----------------|

(Rhythm Guitar)


e|---------0-------|-----------------|-----------------|-----------------|
B|-----------0-----|-----------------|-----------------|-----------------|
G|-----4---------4-|-----7-------2---|-----5-------7---|-----2-----------|
D|---4---4-----4---|---7---7---2---2-|---5---5---7---7-|---2---2---------|
A|-2---------------|-5-------0-------|-3-------5-------|-0-------3-5-5---|
B|-----------------|-----------------|-----------------|---------1-3-3---|

(Lead Guitar)

e|-----------------|-----------------|-----------------|-----------------|
B|-----------------|-----------------|-----------------|-----------------|
G|-----------------|-----9h11--------|-----------------|-----------------|
D|-----------------|-/9-------11-----|-10------12------|-14--------------|
A|-----------------|-----------------|-----------------|-----------------|
B|-----------------|-----------------|-----------------|-----------------| 

(BRIDGE)

(Rhythm Guitar)

e|------------------------|------------------------|------------------------|-------------------------|
B|------------------------|------------------------|------------------------|-------------------------|
G|------------------------|------------------------|------------------------|-------------------------|
D|------------------------|------------------------|------------------------|-------------------------|
A|------------------------|------------------------|------------------------|-------------------------|
B|-0--0--3--0--0--1--0--0-|-3--0--0--4--4--1--1--5-|-8--0--3--0--0--1--0--0-|-3--0--0--4--4--1--1--5--|

(Lead Guitar)

e|------------------------|------------------------|------------------------|-------------------------|
B|------------------------|------------------------|------------------------|-------------------------|
G|----------------11b13r11|-11b13r11-11b14b16r14-11|b13r11-11b13r11-11b13r11|-11b13r11-11b14b16r14-11-|
D|------------------------|------------------------|------------------------|-------------------------|
A|------------------------|------------------------|------------------------|-------------------------|
B|------------------------|------------------------|------------------------|-------------------------|

[Rhythm Guitar]

e|------------------------|------------------------|------------------------|-------------------------|
B|------------------------|------------------------|------------------------|-------------------------|
G|------------------------|------------------------|------------------------|-------------------------|
D|------------------------|------------------------|------------------------|-------------------------|
A|------------------------|------------------------|------------------------|-------------------------|
B|-0--0--3--0--0--1--0--0-|-3--0--0--4--4--1--1--5-|-8--0--3--0--0--1--0--0-|-3--0--0--4--4--1--1--5--|

(Lead Guitar)

e|------------------------|------------------------|------------------------|-------------------------|
B|------------------------|------------------------|------------------------|-------------------------|
G|b13r11-11b13r11-11b13r11|-11b13r11-11b14b16r14-11|b13r11-11b13r11-11b13r11|-------------------------|
D|------------------------|------------------------|------------------------|-------------------------|
A|------------------------|------------------------|------------------------|-------------------------|
B|------------------------|------------------------|------------------------|-------------------------|

[GUITARI SOLO)

[Lead]

e|------------------------|------------------------|------------------------|-------------------------|
B|------------------------|------------------------|------------------------|-3-----------------------|
G|-11b(12)~~~~~10b(11)~~~~|-11b(12)~~~-~10b(11)~~~~|-4--4b==(6)--4b==(6)----|--x--------7---7-9-9b(11)|
D|------------------------|------------------------|------------------------|---4h5p4/9---9-----------|
A|------------------------|------------------------|------------------------|-------------------------|
B|------------------------|------------------------|------------------------|-------------------------|

[Rhythm]

e|------------------------|------------------------|------------------------|-------------------------|
B|------------------------|------------------------|------------------------|-------------------------|
G|------------------------|------------------------|------------------------|-------------------------|
D|------------------------|------------------------|------------------------|-------------------------|
A|------------------------|------------------------|------------------------|-------------------------|
B|-8--0--3--0--0--1--0--0-|-3--0--0--4--4--1--1--5-|-8--0--3--0--0--1--0--0-|-3--0--0--4--4--1--1--5--|

[Lead]

e|------------------------|------------------------|------------------------|-------------------------|
B|----11b(12)~-11b(12)~-11|b(12)~--11b(12)~~~------|------------------------|----------15b(17)--------|
G|------------------------|--------------11-12-11h12p11\10-11-10h11p10-9-6-7|-6h7p6-4-----------------|
D|------------------------|------------------------|------------------------|-------------------------|
A|------------------------|------------------------|------------------------|-------------------------|
B|------------------------|------------------------|------------------------|-------------------------|

[Rhythm]

e|------------------------|------------------------|------------------------|-------------------------|
B|------------------------|------------------------|------------------------|-------------------------|
G|------------------------|------------------------|------------------------|-------------------------|
D|------------------------|------------------------|------------------------|-------------------------|
A|------------------------|------------------------|------------------------|----------6-----3-----7--|
B|-8--0--3--0--0--1--0--0-|-3--0--0--4--4--1--1--5-|-8--0--3--0--0--1--0--0-|-3--0--0--4-----1-----5--|


e|------------------------|------------------------|------------------------|-------------------------|
B|------------------------|------------------------|------------------------|-------------------------|
G|------------------------|------------------------|------------------------|-------------------------|
D|------------------------|------------------------|------------------------|-------------------------|
A|-10----5--------3-------|-5--------6--6--3--3--7-|-10----5--------3-------|-5--------6--6--3--3--7--|
B|-8--0--3--0--0--1--0--0-|-3--0--0--4--4--1--1--5-|-8--0--3--0--0--1--0--0-|-3--0--0--4--4--1--1--5--|


[CHORUS]

e|---------0-------|-----------------|-----------------|------------------|
B|-----------0-----|-----------------|---------1-------|-------------2----|
G|-----4---------4-|-----7-------2---|-----0-----0---0-|-----5-------2-2--|
D|---4---4-----4---|---7---7---2---2-|---3---3-----3---|---5---5---2------|
A|-2---------------|-5-------0-------|-3---------------|-3-------0--------|
B|-----------------|-----------------|-----------------|------------------|


e|---------0-------|-----------------|-----------------|--------------|
B|-----------0-----|-----------------|-----------------|--------------|
G|-----4---------4-|-----7-------2---|-----0-------0---|-----0--------|
D|---4---4-----4---|---7---7---2---2-|---5---5---7---7-|---2---2------|
A|-2---------------|-5-------0-------|-3-------5-------|-0-------3-5--|
B|-----------------|-----------------|-----------------|---------1-3--|


e|---------0-------|-----------------|-----------------|------------------|
B|-----------0-----|-----------------|---------1-------|-------------2----|
G|-----4---------4-|-----7-------2---|-----0-----0---0-|-----5-------2-2--|
D|---4---4-----4---|---7---7---2---2-|---3---3-----3---|---5---5---2------|
A|-2---------------|-5-------0-------|-3---------------|-3-------0--------|
B|-----------------|-----------------|-----------------|------------------|


e|---------0-------|-----------------|-----------------|-----------------------|
B|-----------0-----|-----------------|-----------------|-----------------------|
G|-----4---------4-|-----7-------2---|-5-5-5-5-7-7-7-7-|-9-9-9-9-12-12-12-(12)-|
D|---4---4-----4---|---7---7---2---2-|-----------------|-----------------------|
A|-2---------------|-5-------0-------|-3-3-3-3-5-5-5-5-|-7-7-7-7-10-10-10-(12)-|
B|-----------------|-----------------|-----------------|-----------------------|

[OUTRO]

e|-----------------|-----------------|-----------------|-----------------|
B|-----------------|-----------------|-----------------|-----------------|
G|-----------------|-----------------|-----------------|-----------------|
D|-----------------|-----------------|-----------------|-----------------|
A|-2---2---2-2-2-2-|-----2---2-2-2-2-|-----2---2-2-2-2-|-----2---2-2-2-2-|
E|-0---0---3-0-0-3-|-----0---3-0-0-3-|-----0---3-0-0-3-|-----0---3-0-0-3-|


e|------------------------|-----------------|-----------------|----------------------|
B|---------------7b(1/2)~~|-----------------|-----------------|----------------------|
G|---------------7b(1/2)~~|-----------------|-----------------|---5----4----5----3\--|
D|------------------------|-----------------|-----------------|-x-3--x-2--x-5--x-3\--|
A|-2---2---2-2-2----------|-----2---2-2-2-2-|-2---2---2-2-2---|-x-3--x-2--x-3--x-1\--|
E|-0---0---3-0-0----------|-----0---3-0-0-3-|-0---0---3-0-0---|----------------------|


************************************

| x   Dead note
| (n) Ghost note
| h   Hammer-on
| p   Pull-off
| r   Release
| b   Bend
| br  Bend release
| /   Slide up
| \   Slide down
| ~   Vibrato

************************************
Suggest correction
Give kudos to tab author, rate the tab!
1 2 3 4 5
comments
print report bad tab
guest
You may want to rate the tab now too:
select rating
Wanna post a correction for this tab? Suggest correction