Oops, an error
Loading. Please wait.

Pure Massacre bass

version 2
version 2

Whole song

Interactive

3,175 views 12 this week
no commentswrite comment
1 2 3 4 5
x 4
add to favorites
×
Save as Personal and add changes to this tab that will be seen only by you. Learn more ›
×
You can save this tab as Personal to edit and correct it or add notes. All changes will be seen only by you. Learn more »
launch autoscroll
font size
0
reset
guitar tuner
backing track
0:00
0:00
edit
Autoscroll
slow
fast
+/-
esc
set tempo
stop
Author
Difficulty
Just the intro and the chorus, think its rather fun to play, the rest of the songs quite 
forward so im sure youd be able to figure it out yourself etc..

Intro:
-------------------------|
7---7---7---7---7--------|
0---0---0---0---0--0-0---|
-------------------------|kind of chord on bass..

verse:
------------------|--------------------------||
---3-----3--------|-----3-----3---3/5---7----||
5-----5-----5--3--|--5-----5-----------------||
------------------|--------------------------|| repeat

verse last time through leasing into chorus:
------------------|---------------------||
---3-----3--------|-----3---------------||
5-----5-----5--3--|--5-----5\1-3-5------||
------------------|---------------------||

Chorus: (quite fast)
-----------------------------------------------------|
---5P3---------0H3P0--5P3---------5P3----------------|
------5-------------------5-----------5/8--8--8--8\5-| (back to verse)
3--------1---------------------3---------------------|

if you listen to the song thoroughly youll get it the timings odd in places.

            
            
Suggest correction
Creating personal tab
Creating personal tab
You can edit any tab online and save it as your Personal.

You can edit, replace or remove any tab part or add personal notes – all changes will be seen only by you.

Personal tabs can be accessed anytime from any device, even offline.
Learn more »
comments
print report bad tab
guest
You may want to rate the tab now too:
select rating
Wanna post a correction for this tab? Suggest correction