Oops, an error
Loading. Please wait.

Straight Lines tab

version 1
version 1

Whole song

Interactive

11,821 views 21 this week
7 commentsread comments
1 2 3 4 5
x 4
add to favorites
×
Save as Personal and add changes to this tab that will be seen only by you. Learn more ›
×
You can save this tab as Personal to edit and correct it or add notes. All changes will be seen only by you. Learn more »
launch autoscroll
font size
0
reset
how to read this tab
guitar tuner
edit
Autoscroll
slow
fast
+/-
esc
set tempo
stop
Author
*unofficial lyrics


INTRO
(Piano part for guitar)
e --------------------------------------------|
b --------------------------------------------|
g ------5-------8-5---------------------------| (2x)
d --6-6-----6-6-------------------------------|
a ---6-------6--------------------------------|
E --------------------------------------------|

VERSE 1-----------------------------------------------------

Breathing from a hole in my lung

e --------------------------------------------|
b --------------------------------------------|
g -----5--------------------------8-5---------|
d -6-6------------------------6-6-------------|
a --6--------------------------6--------------|
E --------------------------------------------|

I had no one

e --------------------------------------------|
b --------------------------------------------|
g --------3-----------------------------------|
d ----4-4-------------------------------------|
a -----4--------------------------------------|
E --------------------------------------------|

But faces in front of me

e --------------------------------------------|
b --------------------------------------------|
g --------8-5---------------------------------|
d ----6-6-------------------------------------|
a -----6--------------------------------------|
E --------------------------------------------|

Racing through the void in my head

e --------------------------------------------|
b --------------------------------------------|
g -----5--------------------------8-5---------|
d -6-6------------------------6-6-------------|
a --6--------------------------6--------------|
E --------------------------------------------|

To find traces

e --------------------------------------------|
b --------------------------------------------|
g ----------3---------------------------------|
d ------4-4-----------------------------------|
a -------4------------------------------------|
E --------------------------------------------|

Of a good luck academy

e ---------------------------4----------------|
b -------6-2----------------------------------|
g ---3-3----------------5-5-------------------|
d ----4------------------6--------------------|
a --------------------------------------------|
E --------------------------------------------|

OoH VERSE 1-------------------------------------------------

Oooooh        Oooooh        Oooooh

e --------4-------------4-------------4-------|
b --------------------------------4-----------|
g ---5-5-----------6-6-----------6-6----------|
d ----6-------------6-------------------------|
a --------------------------------------------|
E --------------------------------------------|

VERSE 2-----------------------------------------------------

e --------------------------------------------|
b --------------------------------------------|
g ------5-------8-5---------------------------| (2x)
d --6-6-----6-6-------------------------------|
a ---6-------6--------------------------------|
E --------------------------------------------|

Sparked and now i'm training for thought

e --------------------------------------------|
b --------------------------------------------|
g -----5--------------------------8-5---------|
d -6-6------------------------6-6-------------|
a --6--------------------------6--------------|
E --------------------------------------------|

About no-one

e --------------------------------------------|
b --------------------------------------------|
g --------3-----------------------------------|
d ----4-4-------------------------------------|
a -----4--------------------------------------|
E --------------------------------------------|

And nothing in particular

e --------------------------------------------|
b --------------------------------------------|
g --------8-5---------------------------------|
d ----6-6-------------------------------------|
a -----6--------------------------------------|
E --------------------------------------------|

Watched the sick and suckered and drove

e --------------------------------------------|
b --------------------------------------------|
g -----5--------------------------8-5---------|
d -6-6------------------------6-6-------------|
a --6--------------------------6--------------|
E --------------------------------------------|

Resent nothing

e --------------------------------------------|
b --------------------------------------------|
g ----------3---------------------------------|
d ------4-4-----------------------------------|
a -------4------------------------------------|
E --------------------------------------------|

that's good will inside of me

e ---------------------------4----------------|
b -------6-2----------------------------------|
g ---3-3----------------5-5-------------------|
d ----4------------------6--------------------|
a --------------------------------------------|
E --------------------------------------------|

OoH VERSE 3-------------------------------------------------

Oooooh        Oooooh        Oooooh

e --------4-------------4-------------4-------|
b --------------------------------4-----------|
g ---5-5-----------6-6-----------6-6----------|
d ----6-------------6-------------------------|
a --------------------------------------------|
E --------------------------------------------|


e ----4-----4-----4---------------------------|
b ---4-----4-----4----------------------------|
g --6-----6-----6-----------------------------|
d ---------------------------------6----------|
a ---------------------------------6----------|
E ---------------------------------4----------|

CHORUS------------------------------------------------------

###First Part
###(Second Part)

         Wake me up low with a fever
        (Waking up strong in the morning)

e --------------------------------------------|
b --------------------------------------------|
g -------6----------5----------3--------------|
d -------6----------5----------3---3----------|
a -------4----------3----------1---3----------|
E ---------------------------------1----------|

   Walking in a straight line
  (Walking in a straight line)

e --------------------------------------------|
b --------------------------------------------|
g -0---------------3--------------------------|
d -1---------------3--------------------------|
a -1---------------1--------------------------|
E --------------------------------------------|

         Set me on fire in the evening
        (Lately i'm a desperate believer)

e --------------------------------------------|
b --------------------------------------------|
g -------6----------5----------3--------------|
d --6----6----------5----------3-----3--------|
a --6----4----------3----------1-----3--------|
E --4--------------------------------1--------|

   Everything will be fine
  (But i'm walking in a straight line)


e --------------------------------------------|
b --------------------------------------------|
g -0---------------3--------------------------|
d -1---------------3--------------------------|
a -1---------------1--------------------------|
E --------------------------------------------|

INTRO 3----------------------------------------------------

e ---4---4-4---4-4-4----------------------------|
b ---4---4-4---4-4-4----------------------------|
g ---5---5-5---5-5-5----------------------------| (4x)
d ---6---6-6---6-6-6----------------------------|
a ---6---6-6---6-6-6----------------------------|
E ---4---4-4---4-4-4----------------------------|

VERSE 3-----------------------------------------------------

Something I will never forget

e ---4---4-4---4-4-4----------------------------|
b ---4---4-4---4-4-4----------------------------|
g ---5---5-5---5-5-5----------------------------| (2x)
d ---6---6-6---6-6-6----------------------------|
a ---6---6-6---6-6-6----------------------------|
E ---4---4-4---4-4-4----------------------------|

I felt desperate

e ---2---2-2---2-2-2----------------------------|
b ---2---2-2---2-2-2----------------------------|
g ---3---3-3---3-3-3----------------------------|
d ---4---4-4---4-4-4----------------------------|
a ---4---4-4---4-4-4----------------------------|
E ---2---2-2---2-2-2----------------------------|

And stuck to the marrow
Invisible to everyone else

e ---4---4-4---4-4-4----------------------------|
b ---4---4-4---4-4-4----------------------------|
g ---5---5-5---5-5-5----------------------------| (3x)
d ---6---6-6---6-6-6----------------------------|
a ---6---6-6---6-6-6----------------------------|
E ---4---4-4---4-4-4----------------------------|

I'm a sex change

e ---2---2-2---2-2-2----------------------------|
b ---2---2-2---2-2-2----------------------------|
g ---3---3-3---3-3-3----------------------------|
d ---4---4-4---4-4-4----------------------------|
a ---4---4-4---4-4-4----------------------------|
E ---2---2-2---2-2-2----------------------------|

And a damsel with no heroine

e ----4------------------4---4-4---4-4-4------|
b ----5------------------4---4-4---4-4-4------|
g ----6------------------5---5-5---5-5-5------|
d ----6------------------6---6-6---6-6-6------|
a ----4------------------6---6-6---6-6-6------|
E -----------------------4---4-4---4-4-4------|

OoH VERSE 2-------------------------------------------------

   Oooooh (1)             Oooooh (2)

e -4---4-4---4-4-4----------------------------|
b -4---4-4---4-4-4----------------------------|
g -5---5-5---5-5-5----------------------------| (2x)
d -6---6-6---6-6-6----------------------------|
a -6---6-6---6-6-6----------------------------|
E -4---4-4---4-4-4----------------------------|

   Ooooooooooooooooooooooooooh (3)

e ----4---------------------------------------|
b ----5---------------------------------------|
g ----6-----------------11--------------------|
d ----6-----------------11--------------------|
a ----4-----------------9---------------------|
E --------------------------------------------|

CHORUS-------------------(again)----------------------------

And then...

INTRO 4----------------------------------------------------

e ---4---4-4---4-4-4----------------------------|
b ---4---4-4---4-4-4----------------------------|
g ---5---5-5---5-5-5----------------------------|
d ---6---6-6---6-6-6----------------------------|
a ---6---6-6---6-6-6----------------------------|
E ---4---4-4---4-4-4----------------------------|

OUTRO------------------------------------------------------

      I don't need know...

e ---4---4-4---4-4-4----------------------------|
b ---4---4-4---4-4-4----------------------------|
g ---5---5-5---5-5-5----------------------------|
d ---6---6-6---6-6-6----------------------------|
a ---6---6-6---6-6-6----------------------------|
E ---4---4-4---4-4-4----------------------------|

...time to say

e ---1---1-1---1-1-1----------------------------|
b ---1---1-1---1-1-1----------------------------|
g ---2---2-2---2-2-2----------------------------| (2x)
d ---3---3-3---3-3-3----------------------------|
a ---3---3-3---3-3-3----------------------------|
E ---1---1-1---1-1-1----------------------------|

There's no changing...

e ---4---4-4---4-4-4----------------------------|
b ---4---4-4---4-4-4----------------------------|
g ---5---5-5---5-5-5----------------------------|
d ---6---6-6---6-6-6----------------------------| (2x)
a ---6---6-6---6-6-6----------------------------|
E ---4---4-4---4-4-4----------------------------|

...yesterday

e ---1---1-1---1-1-1----------------------------|
b ---1---1-1---1-1-1----------------------------|
g ---2---2-2---2-2-2----------------------------| (2x)
d ---3---3-3---3-3-3----------------------------|
a ---3---3-3---3-3-3----------------------------|
E ---1---1-1---1-1-1----------------------------|

If we keep talking in
I keep walking in...

e ---4---4-4---4-4-4----------------------------|
b ---4---4-4---4-4-4----------------------------|
g ---5---5-5---5-5-5----------------------------|
d ---6---6-6---6-6-6----------------------------| (2x)
a ---6---6-6---6-6-6----------------------------|
E ---4---4-4---4-4-4----------------------------|

...straight lines
e ---1---1-1---1-1-1----------------------------|
b ---1---1-1---1-1-1----------------------------|
g ---2---2-2---2-2-2----------------------------| (2x)
d ---3---3-3---3-3-3----------------------------|
a ---3---3-3---3-3-3----------------------------|
E ---1---1-1---1-1-1----------------------------|

e --------------------------------------------|
b --------------------------------------------|
g ----6---------------------------------------|
d ----6---------------------------------------|
a ----4---------------------------------------|
E --------------------------------------------|

INTRO 5----------------------------------------------------

e --------4---------3---------1--------1----------|
b --------x---------x---------x--------1----------|
g --------6---------5---------3--------2----------|
d --------6---------5---------3--------3----------|
a --------4---------3---------1--------3----------|
E -------------------------------------1----------|


e -----------------1--------------------------|
b -----------------x--------------------------|
g -0---------------3--------------------------|
d -1---------------3--------------6-----------|
a -1---------------1--------------6-----------|
E --------------------------------4-----------|

CHORUS-------------------(again)----------------------------

And Then...
FINAL----------------------------------------------------

e ---4---4-4---4-4-4----------------------------|
b ---4---4-4---4-4-4----------------------------|
g ---5---5-5---5-5-5----------------------------| (8x)
d ---6---6-6---6-6-6----------------------------|
a ---6---6-6---6-6-6----------------------------|
E ---4---4-4---4-4-4----------------------------|

e ----------------------------------------------|
b ----------------------------------------------|
g ----------------------------------------------|
d ---6------------------------------------------|
a ---6------------------------------------------|
E ---4------------------------------------------|

tabbed by Tyler

tyes24@hotmail.com
Suggest correction
Creating personal tab
Creating personal tab
You can edit any tab online and save it as your Personal.

You can edit, replace or remove any tab part or add personal notes – all changes will be seen only by you.

Personal tabs can be accessed anytime from any device, even offline.
Learn more »
comments
print report bad tab
7 comments total. Showing first comments.
0 reply
RobG&D 76 Mar 04, 2007 12:21 AM

Thanks for actually trying to tab it, but the chorus sounds way off to me.

0 reply
bgbnbigben 83 Mar 20, 2007 09:35 PM

First of all, second verse is: Sparks ignite in training for thought, not whatever you had.
Secondly, Rob is right, the chorus is a bit off. i personally think so are the e4's you have, i think there e5, but that doesn't really matter.
It was a good attempt for the first tab, however. That took some guts.....
Ben

0 reply
phillbfg 10 Apr 13, 2007 01:06 PM

Tabbed by Tyler? Are you sure? No you're not sure.
It was tabbed by another guy.

guest
You may want to rate the tab now too:
select rating
Wanna post a correction for this tab? Suggest correction