Oops, an error
Loading. Please wait.

The Greatest View Tab

version 5
version 5

Whole song

Interactive

46 views 9 this week
no commentswrite comment
1 2 3 4 5
x 3
add to favorites
launch autoscroll
font size
0
reset
how to read this tab
guitar tuner
Autoscroll
slow
fast
+/-
esc
set tempo
stop
Help us to improve Ultimate-Guitar.com Take our survey!
×
Author
Difficulty
intermediate
About this tab version
I've studied a lot of the live videos and this is the way they play it. Was this info helpful? Yes No
Silverchair
The Greatest View
Diorama (2002)

Tuning - EADGBe


[INTRO]
 
e|------------------|------------------|------------------|------------------|
B|------------------|------------------|------------------|------------------|
G|------------------|------------------|------------------|------------------|
D|------------------|------------------|------------------|---------3-2-0-2--|
A|-------12-11-10---|-7-10-9-7---------|-----------2------|-------2----------|
E|-0--0-------------|--------------0-3-|-1-----0-1---1----|---0-1------------|


e|------------------|------------------|------------------|------------------|
B|------------------|------------------|------------------|------------------|
G|------------------|------------------|------------------|------------------|
D|------------------|------------------|------------------|---------3-2-0-2--|
A|-------12-11-10---|-7-10-9-7---------|-----------2------|-------2----------|
E|-0--0-------------|--------------0-3-|-1-----0-1---1----|---0-1------------|


e|------------------|------------------|------------------|------------------|
B|------------------|------------------|------------------|------------------|
G|------------------|------------------|------------------|---------------2--|
D|------------------|------------------|------------------|---------3-2-0----|
A|-------12-11-10---|-7-10-9-7---------|-----------2------|-------2----------|
E|-0--0-------------|--------------0-3-|-1-----0-1---1----|---0-1------------|

[VERSE]
 
e|-0-------0--------|--0---0--0---0----|-0-------0--------|--0---0--0---0----|
B|-5-------5--------|--5---5--5---5----|-0-------0--------|--0---0--0---0----|
G|-6-------6--------|--6---6--6---6----|-8-------8--------|--8---8--8---8----|
D|-7-------7--------|--7---7--7---7----|-7-------7--------|--7---7--7---7----|
A|-0-------0--------|--0---0--0---0----|-6-------6--------|--6---6--6---6----|
E|------------------|------------------|-7-------7--------|--7---7--7---7----|

e|-0-------0--------|--0-------0-------|-0-------0--------|-0-------0--------|-0--0--0----0-----|
B|-5-------5------0-|--5-------5-----0-|-5-------5------0-|-0-------0--------|-0--0--0----0-----|
G|-6-------6------0-|--5-------5-----0-|-6-------6------0-|-1-------1--------|-1--1--1----1-----|
D|-7-------7------0-|--7-------7-----0-|-7-------7------0-|-2-------2--------|-2--2--2----2-----|
A|-0-------0--------|--0-------0-------|-0-------0--------|-2-------2--------|-2--2--2----2-----|
E|------------------|------------------|------------------|-0-------0--------|-0--0--0----0-----|

e|-0-------0--------|--0---0--0---0----|-0-------0--------|--0---0--0---0----|
B|-5-------5--------|--5---5--5---5----|-0-------0--------|--0---0--0---0----|
G|-6-------6--------|--6---6--6---6----|-8-------8--------|--8---8--8---8----|
D|-7-------7--------|--7---7--7---7----|-7-------7--------|--7---7--7---7----|
A|-0-------0--------|--0---0--0---0----|-6-------6--------|--6---6--6---6----|
E|------------------|------------------|-7-------7--------|--7---7--7---7----|

e|-6-------6--------|-1--------3-------|
B|-6-------6------0-|-1------0-3-------|
G|-7-------7------0-|-2------0-4-------|
D|-8-------8------0-|-3------0-5-------|
A|-8-------8--------|-3--------5-------|
E|-6-------6--------|-1--------3-------|


[PRE-CHORUS]

e|-0---0---0---0----|------------------|-3-------3--------|-5-------5--------|
B|-3---3---0---2----|---2--0h2p0---0---|-1-------1--------|-3-------3--------|
G|-2---2---2---2----|---2--------2-----|-0-------0--------|-0-------0--------|
D|-2---2---2---2----|---2--------------|-2-------2--------|-4-------4--------|
A|-0---0---0---0----|---0--------------|-3-------3--------|-5-------5--------|
E|------------------|------------------|------------------|------------------|

e|-0---0---0---0----|------------------|-3-------3--------|-5-------5--------|
B|-3---3---0---2----|---2--0h2p0---0---|-1-------1--------|-3-------3--------|
G|-2---2---2---2----|---2--------2-----|-0-------0--------|-0-------0--------|
D|-2---2---2---2----|---2--------------|-2-------2--------|-4-------4--------|
A|-0---0---0---0----|---0--------------|-3-------3--------|-5-------5--------|
E|------------------|------------------|------------------|------------------|

e|-0---0---0---0----|------------------|-3-------3--------|-5-------5--------|
B|-3---3---0---2----|---2--0h2p0---0---|-1-------1--------|-3-------3--------|
G|-2---2---2---2----|---2--------2-----|-0-------0--------|-0-------0--------|
D|-2---2---2---2----|---2--------------|-2-------2--------|-4-------4--------|
A|-0---0---0---0----|---0--------------|-3-------3--------|-5-------5--------|
E|------------------|------------------|------------------|------------------|

[Rhythm Guitar]

e|------------------|------------------|
B|------------------|------------------|
G|--9-9-9-9-9-9-9-9-|--9-9-9-9-9-9-9-9-|
D|------------------|------------------|
A|--7-7-7-7-7-7-7-7-|--7-7-7-7-7-7-7-7-|
E|--0---------------|------------------|

[Lead Guitar]

e|------------------|------------------|
B|------------------|------------------|
G|--14------13--13--|--11--11--9---9---|
D|------------------|------------------|
A|--12------11--11--|--9---9---7---7---|
E|------------------|------------------|


[CHORUS]

e|-0-------0--------|-0---0--0---0-----|-0-------0--------|-0---0--0---0-----|
B|-5-------5--------|-5---5--5---5-----|-2-------2--------|-2---2--2---2-----|
G|-6-------6--------|-6---6--6---6-----|-1-------1--------|-1---1--1---1-----|
D|-7-------7--------|-7---7--7---7-----|-2-------2--------|-2---2--2---2-----|
A|-0-------0--------|-0---0--0---0-----|-0-------0--------|-0---0--0---0-----|
E|------------------|------------------|------------------|------------------|

e|-7-------7--------|-7---7--7---7-----|-x-------x--------|-5-------5--------|
B|-7-------7--------|-7---7--7---7-----|-7-------7--------|-6-------6--------|
G|-7-------7--------|-7---7--7---7-----|-x-------x--------|-7-------7--------|
D|-7-------7--------|-7---7--7---7-----|-7-------7--------|-7-------7--------|
A|-9-------9--------|-9---9--9---9-----|-5-------5--------|-5-------5--------|
E|-7-------7--------|-7---7--7---7-----|------------------|------------------|

e|-0-------0--------|-0---0--0---0-----|-0-------0--------|-0---0--0---0-----|
B|-5-------5--------|-5---5--5---5-----|-2-------2--------|-2---2--2---2-----|
G|-6-------6--------|-6---6--6---6-----|-1-------1--------|-1---1--1---1-----|
D|-7-------7--------|-7---7--7---7-----|-2-------2--------|-2---2--2---2-----|
A|-0-------0--------|-0---0--0---0-----|-0-------0--------|-0---0--0---0-----|
E|------------------|------------------|------------------|------------------|

e|-7-------7--------|-7---7--7---7-----|-x-------x--------|-5-------5--------|
B|-7-------7--------|-7---7--7---7-----|-7-------7--------|-6-------6--------|
G|-7-------7--------|-7---7--7---7-----|-x-------x--------|-7-------7--------|
D|-7-------7--------|-7---7--7---7-----|-7-------7--------|-7-------7--------|
A|-9-------9--------|-9---9--9---9-----|-5-------5--------|-5-------5--------|
E|-7-------7--------|-7---7--7---7-----|------------------|------------------|


[INSTRUMENTAL BREAK]

e|------------------|------------------|---------3-0------|----------5-0-----|
B|-------3---0---2--|--2---0h2p0---0---|-----1-------0h1--|------3-------3/5-|
G|------------------|------------2-----|-------0----------|--------0---------|
D|----2-------------|------------------|---2--------------|----4-------------|
A|-0----------------|------------------|-3----------------|-/5---------------|
E|------------------|------------------|------------------|------------------|


e|------------------|------------------|------------------|---------0--------|
B|-------3---0---2--|----14----12----10|---------1--------|-----------3------|
G|------------------|------------------|-----0-----0---0--|-----0-------0----|
D|----2-------------|/14----12----11---|---2---2-----2----|---4---4-------4--|
A|-0----------------|------------------|-3----------------|-5----------------|
E|------------------|------------------|------------------|------------------|

[VERSE II]
 
e|-0-------0--------|--0---0--0---0----|-0-------0--------|--0---0--0---0----|
B|-5-------5--------|--5---5--5---5----|-0-------0--------|--0---0--0---0----|
G|-6-------6--------|--6---6--6---6----|-8-------8--------|--8---8--8---8----|
D|-7-------7--------|--7---7--7---7----|-7-------7--------|--7---7--7---7----|
A|-0-------0--------|--0---0--0---0----|-6-------6--------|--6---6--6---6----|
E|------------------|------------------|-7-------7--------|--7---7--7---7----|

e|-0-------0--------|--0-------0-------|-0-------0--------|-0-------0--------|-0--0--0----0-----|
B|-5-------5------0-|--5-------5-----0-|-5-------5------0-|-0-------0--------|-0--0--0----0-----|
G|-6-------6------0-|--5-------5-----0-|-6-------6------0-|-1-------1--------|-1--1--1----1-----|
D|-7-------7------0-|--7-------7-----0-|-7-------7------0-|-2-------2--------|-2--2--2----2-----|
A|-0-------0--------|--0-------0-------|-0-------0--------|-2-------2--------|-2--2--2----2-----|
E|------------------|------------------|------------------|-0-------0--------|-0--0--0----0-----|

e|-0-------0--------|--0---0--0---0----|-0-------0--------|--0---0--0---0----|
B|-5-------5--------|--5---5--5---5----|-0-------0--------|--0---0--0---0----|
G|-6-------6--------|--6---6--6---6----|-8-------8--------|--8---8--8---8----|
D|-7-------7--------|--7---7--7---7----|-7-------7--------|--7---7--7---7----|
A|-0-------0--------|--0---0--0---0----|-6-------6--------|--6---6--6---6----|
E|------------------|------------------|-7-------7--------|--7---7--7---7----|

e|-6-------6--------|-1--------3-------|
B|-6-------6------0-|-1------0-3-------|
G|-7-------7------0-|-2------0-4-------|
D|-8-------8------0-|-3------0-5-------|
A|-8-------8--------|-3--------5-------|
E|-6-------6--------|-1--------3-------|

[CHORUS]


e|-0-------0--------|-0---0--0---0-----|-0-------0--------|-0---0--0---0-----|
B|-5-------5--------|-5---5--5---5-----|-2-------2--------|-2---2--2---2-----|
G|-6-------6--------|-6---6--6---6-----|-1-------1--------|-1---1--1---1-----|
D|-7-------7--------|-7---7--7---7-----|-2-------2--------|-2---2--2---2-----|
A|-0-------0--------|-0---0--0---0-----|-0-------0--------|-0---0--0---0-----|
E|------------------|------------------|------------------|------------------|

e|-7-------7--------|-7---7--7---7-----|-x-------x--------|-5-------5--------|
B|-7-------7--------|-7---7--7---7-----|-7-------7--------|-6-------6--------|
G|-7-------7--------|-7---7--7---7-----|-x-------x--------|-7-------7--------|
D|-7-------7--------|-7---7--7---7-----|-7-------7--------|-7-------7--------|
A|-9-------9--------|-9---9--9---9-----|-5-------5--------|-5-------5--------|
E|-7-------7--------|-7---7--7---7-----|------------------|------------------|

e|-0-------0--------|-0---0--0---0-----|-0-------0--------|-0---0--0---0-----|
B|-5-------5--------|-5---5--5---5-----|-2-------2--------|-2---2--2---2-----|
G|-6-------6--------|-6---6--6---6-----|-1-------1--------|-1---1--1---1-----|
D|-7-------7--------|-7---7--7---7-----|-2-------2--------|-2---2--2---2-----|
A|-0-------0--------|-0---0--0---0-----|-0-------0--------|-0---0--0---0-----|
E|------------------|------------------|------------------|------------------|

e|-7-------7--------|-7---7--7---7-----|-x-------x--------|-5-------5--------|
B|-7-------7--------|-7---7--7---7-----|-7-------7--------|-6-------6--------|
G|-7-------7--------|-7---7--7---7-----|-x-------x--------|-7-------7--------|
D|-7-------7--------|-7---7--7---7-----|-7-------7--------|-7-------7--------|
A|-9-------9--------|-9---9--9---9-----|-5-------5--------|-5-------5--------|
E|-7-------7--------|-7---7--7---7-----|------------------|------------------|


[BRIDGE]

e|------------------|------------------|------------------|------------------|
B|------------------|------------------|------------------|------------------|
G|------------------|------------------|------------------|------------------|
D|------------------|------------------|------------------|---------3-2-0-2--|
A|-------12-11-10---|-7-10-9-7---------|-----------2------|-------2----------|
E|-0--0-------------|--------------0-3-|-1-----0-1---1----|---0-1------------|

e|------------------|------------------|------------------|------------------|
B|------------------|------------------|------------------|------------------|
G|------------------|------------------|------------------|------------------|
D|------------------|------------------|------------------|---------3-2-0-2--|
A|-------12-11-10---|-7-10-9-7---------|-----------2------|-------2----------|
E|-0--0-------------|--------------0-3-|-1-----0-1---1----|---0-1------------|

e|------------------|------------------|------------------|------------------|
B|------------------|------------------|------------------|------------------|
G|------------------|------------------|------------------|------------------|
D|------------------|------------------|------------------|------------------|
A|-------12-11-10---|-7-10-9-7---------|-3-3-3---x-x----3-|-6-6-6---x-x------|
E|-0--0-------------|--------------0-3-|-1-1-1---x-x--0-1-|-4-4-4---x-x--3-4-| 

e|------------------|------------------|---------|
B|------------------|------------------|---------|
G|------------------|------------------|---------|
D|------------------|------------------|---------|
A|-2---4-5-5--------|-5---7-8-8--------|---------|
E|---------3---5-6--|---------6--------|---------|

[PRE-CHORUS]

e|-0---0---0---0----|------------------|-3-------3--------|-5-------5--------|
B|-3---3---0---2----|---2--0h2p0---0---|-1-------1--------|-3-------3--------|
G|-2---2---2---2----|---2--------2-----|-0-------0--------|-0-------0--------|
D|-2---2---2---2----|---2--------------|-2-------2--------|-4-------4--------|
A|-0---0---0---0----|---0--------------|-3-------3--------|-5-------5--------|
E|------------------|------------------|------------------|------------------|

e|-0---0---0---0----|------------------|-3-------3--------|-5-------5--------|
B|-3---3---0---2----|---2--0h2p0---0---|-1-------1--------|-3-------3--------|
G|-2---2---2---2----|---2--------2-----|-0-------0--------|-0-------0--------|
D|-2---2---2---2----|---2--------------|-2-------2--------|-4-------4--------|
A|-0---0---0---0----|---0--------------|-3-------3--------|-5-------5--------|
E|------------------|------------------|------------------|------------------|

e|-0---0-------2----|----------x--0----|------------------|------------------|
B|-3---3---x---2----|----------x--0----|-1---1---x-x-x-x--|-3---3---x-x-x-x--|
G|-2---2---x---2----|----------x--1----|-0---0---x-x-x-x--|-2---2---x-x-x-x--|
D|-2---2---x---4----|----------x--2----|-2---2---x-x-x-x--|-0---0---x-x-x-x--|
A|-0---0---x---4----|----------x--2----|-3---3---x-x-x-x--|-x---x---x-x-x-x--|
E|-------------2----|----------x--0----|-3---3---x-x-x-x--|-2---2---x-x-x-x--|

[Rhythm Guitar]

e|------------------|------------------|
B|------------------|------------------|
G|--9-9-9-9-9-9-9-9-|--9-9-9-9-9-9-9-9-|
D|------------------|------------------|
A|--7-7-7-7-7-7-7-7-|--7-7-7-7-7-7-7-7-|
E|--0---------------|------------------|

[Lead Guitar]

e|------------------|------------------|
B|------------------|------------------|
G|--14------13--13--|--11--11--9---9---|
D|------------------|------------------|
A|--12------11--11--|--9---9---7---7---|
E|------------------|------------------|

[CHORUS]
e|-0-------0--------|-0---0--0---0-----|-0-------0--------|-0---0--0---0-----|
B|-5-------5--------|-5---5--5---5-----|-2-------2--------|-2---2--2---2-----|
G|-6-------6--------|-6---6--6---6-----|-1-------1--------|-1---1--1---1-----|
D|-7-------7--------|-7---7--7---7-----|-2-------2--------|-2---2--2---2-----|
A|-0-------0--------|-0---0--0---0-----|-0-------0--------|-0---0--0---0-----|
E|------------------|------------------|------------------|------------------|

e|-7-------7--------|-7---7--7---7-----|-x-------x--------|-5-------5--------|
B|-7-------7--------|-7---7--7---7-----|-7-------7--------|-6-------6--------|
G|-7-------7--------|-7---7--7---7-----|-x-------x--------|-7-------7--------|
D|-7-------7--------|-7---7--7---7-----|-7-------7--------|-7-------7--------|
A|-9-------9--------|-9---9--9---9-----|-5-------5--------|-5-------5--------|
E|-7-------7--------|-7---7--7---7-----|------------------|------------------|

e|-0-------0--------|-0---0--0---0-----|-0-------0--------|-0---0--0---0-----|
B|-5-------5--------|-5---5--5---5-----|-2-------2--------|-2---2--2---2-----|
G|-6-------6--------|-6---6--6---6-----|-1-------1--------|-1---1--1---1-----|
D|-7-------7--------|-7---7--7---7-----|-2-------2--------|-2---2--2---2-----|
A|-0-------0--------|-0---0--0---0-----|-0-------0--------|-0---0--0---0-----|
E|------------------|------------------|------------------|------------------|

e|-7-------7--------|-7---7--7---7-----|-x-------x--------|-5-------5--------|
B|-7-------7--------|-7---7--7---7-----|-7-------7--------|-6-------6--------|
G|-7-------7--------|-7---7--7---7-----|-x-------x--------|-7-------7--------|
D|-7-------7--------|-7---7--7---7-----|-7-------7--------|-7-------7--------|
A|-9-------9--------|-9---9--9---9-----|-5-------5--------|-5-------5--------|
E|-7-------7--------|-7---7--7---7-----|------------------|------------------|

e|-0-------0--------|-0---0--0---0-----|-0-------0--------|-0---0--0---0-----|
B|-5-------5--------|-5---5--5---5-----|-2-------2--------|-2---2--2---2-----|
G|-6-------6--------|-6---6--6---6-----|-1-------1--------|-1---1--1---1-----|
D|-7-------7--------|-7---7--7---7-----|-2-------2--------|-2---2--2---2-----|
A|-0-------0--------|-0---0--0---0-----|-0-------0--------|-0---0--0---0-----|
E|------------------|------------------|------------------|------------------|

e|-7-------7--------|-7---7--7---7-----|-x-------x--------|-5-------5--------|
B|-7-------7--------|-7---7--7---7-----|-7-------7--------|-6-------6--------|
G|-7-------7--------|-7---7--7---7-----|-x-------x--------|-7-------7--------|
D|-7-------7--------|-7---7--7---7-----|-7-------7--------|-7-------7--------|
A|-9-------9--------|-9---9--9---9-----|-5-------5--------|-5-------5--------|
E|-7-------7--------|-7---7--7---7-----|------------------|------------------|

e|-0-------0--------|-0---0--0---0-----|-0-------0--------|-0---0--0---0-----|
B|-5-------5--------|-5---5--5---5-----|-2-------2--------|-2---2--2---2-----|
G|-6-------6--------|-6---6--6---6-----|-1-------1--------|-1---1--1---1-----|
D|-7-------7--------|-7---7--7---7-----|-2-------2--------|-2---2--2---2-----|
A|-0-------0--------|-0---0--0---0-----|-0-------0--------|-0---0--0---0-----|
E|------------------|------------------|------------------|------------------|

e|-7-------7--------|-7---7--7---7-----|-x-------x--------|-5----------------|
B|-7-------7--------|-7---7--7---7-----|-7-------7--------|-6----------------|
G|-7-------7--------|-7---7--7---7-----|-x-------x--------|-7----------------|
D|-7-------7--------|-7---7--7---7-----|-7-------7--------|-7----------------|
A|-9-------9--------|-9---9--9---9-----|-5-------5--------|-5----------------|
E|-7-------7--------|-7---7--7---7-----|------------------|------------------|



************************************

| x   Dead note
| g   Grace note
| (n) Ghost note
| h   Hammer-on
| p   Pull-off
| r   Release
| >   Accented note
| t   Tapping
| b   Bend
| br  Bend release
| pb  Pre-bend
| pbr Pre-bend release
| /   Slide up
| \   Slide down
| ~   Vibrato
| s   Slap
| P   Pop
| PM  Palm mute
| TR  Trill
| N   Tremolo

************************************
Suggest correction
Give kudos to tab author, rate the tab!
1 2 3 4 5
comments
print report bad tab
guest
You may want to rate the tab now too:
select rating
Wanna post a correction for this tab? Suggest correction