Oops, an error
Loading. Please wait.

The Lever Tab

version 2
version 2

Whole song

  • I've studied a lot of the live videos and this is the way they play it.

Interactive

22 views 3 this week
no commentswrite comment
1 2 3 4 5
3 more votes to show rating
add to favorites
launch autoscroll
font size
0
reset
how to read this tab
guitar tuner
Autoscroll
slow
fast
+/-
esc
set tempo
stop
Help us to improve Ultimate-Guitar.com Take our survey!
×
Author
Difficulty
intermediate
About this tab version
I've studied a lot of the live videos and this is the way they play it. Was this info helpful? Yes No
Silverchair
The Lever
Diorama (2002)

Tuning - BADGBe

[VERSE]

4/4

e|--------------|---------------|--------------|----------------|
B|--------------|---------------|--------------|----------------|
G|--------------|---------------|--------------|----------------|
D|--------------|---------------|--------------|----------------|
A|--------------|-------------2-|--------------|-------------2--|
B|-0--0-0-2b(3)-|-0--0-0-2b(3)--|-0--0-0-2b(3)-|-0--0-0-2b(3)---|

e|--------------|---------------|--------------|----------------|
B|--------------|---------------|--------------|----------------|
G|--------------|---------------|--------------|----------------|
D|--------------|---------------|--------------|-----------7h9--|
A|--------------|-------------2-|--------------|--------7h9-----|
B|-0--0-0-2b(3)-|-0--0-0-2b(3)--|-0--0-0-2b(3)-|-0--0-0---------|

e|--------------|---------------|--------------|----------------|
B|--------------|---------------|--------------|----------------|
G|--------------|---------------|--------------|----------------|
D|--------------|---------------|--------------|----------------|
A|--------------|-------------2-|--------------|-------------2--|
B|-0--0-0-2b(3)-|-0--0-0-2b(3)--|-0--0-0-2b(3)-|-0--0-0-2b(3)---|

e|--------------|---------------|--------------|----------------|
B|--------------|---------------|--------------|----------------|
G|--------------|---------------|--------------|----------------|
D|--------------|---------------|--------------|-----------7h9--|
A|--------------|-------------2-|--------------|--------7h9-----|
B|-0--0-0-2b(3)-|-0--0-0-2b(3)--|-0--0-0-2b(3)-|-0--0-0---------|



e|-----------------|----------------|
B|-----------------|----------------|
G|-----------------|----------------|
D|-----------------|----------------|
A|-----------------|----------------|
B|-6-0-0-6-0-0-6-0-|-0-6-0-0-6------|

[PRE-CHORUS]

e|----------|----------|----------|----------|-----------|----------|----------|----------|
B|----------|----------|----------|----------|-----------|----------|----------|----------|
G|----------|----------|----------|----------|-----------|----------|----------|----------|
D|----------|----------|----------|----------|-----------|----------|----------|----------|
A|----------|----------|----------|----------|-----------|----------|----------|----------|
B|-0----3---|-0--3-3-1-|-0----3---|-0--3-3-1-|-0--0--3---|-0--3-3-1-|-0----3---|-0--3-3-1-|

[CHORUS]

[Rhythm Guitar]

e|------------|------------|------------|------------|------------|------------|-------------|-------------|
B|------------|------------|------------|------------|------------|------------|-------------|-------------|
G|------------|------------|------------|------------|------------|------------|-------------|-------------|
D|------------|------------|------------|------------|------------|------------|-------------|-------------|
A|-2----------|--------5---|-2----------|--------12--|-2----------|--------3---|-------------|-------------|
B|-0----------|--------3---|-0----------|--------10--|-0----------|--------1---|-------------|-------/7~~--|

[Lead Guitar]

e|------------|------------|------------|------------|------------|------------|-------------|-------------|
B|------------|------------|------------|------------|------------|------------|-------------|-------------|
G|-8--8-8-6-8-|-9\-----2---|-8--8-8-6-8-|-9\-----2---|-8--8-8-6-8-|-9\---------|-------------|-------------|
D|------------|------------|------------|------------|------------|------------|-------------|-------------|
A|-6--6-6-4-6-|-7\-----0---|-6--6-6-4-6-|-7\-----0---|-6--6-6-4-6-|-7\-----3---|-------------|-------------|
B|------------|------------|------------|------------|------------|--------1---|-------------|-------------|

[BREAK]

e|--------------|----------------|
B|--------------|----------------|
G|--------------|----------------|
D|--------------|----------------|
A|--------------|-------------2--|
B|-0--0-0-2b(3)-|-0--0-0-2b(3)---|

[VERSE II]

e|--------------|---------------|--------------|----------------|
B|--------------|---------------|--------------|----------------|
G|--------------|---------------|--------------|----------------|
D|--------------|---------------|--------------|----------------|
A|--------------|-------------2-|--------------|-------------2--|
B|-0--0-0-2b(3)-|-0--0-0-2b(3)--|-0--0-0-2b(3)-|-0--0-0-2b(3)---|

e|--------------|---------------|--------------|---------------------|
B|--------------|---------------|--------------|---------------------|
G|--------------|---------------|--------------|---9b(10)p7---7------|
D|--------------|---------------|--------------|------------9---9-7--|
A|--------------|-------------2-|--------------|---------------------|
B|-0--0-0-2b(3)-|-0--0-0-2b(3)--|-0--0-0-2b(3)-|-0-------------------|

e|--------------|---------------|--------------|----------------|
B|--------------|---------------|--------------|----------------|
G|--------------|---------------|--------------|----------------|
D|--------------|---------------|--------------|----------------|
A|--------------|-------------2-|--------------|-------------2--|
B|-0--0-0-2b(3)-|-0--0-0-2b(3)--|-0--0-0-2b(3)-|-0--0-0-2b(3)---|

e|--------------|---------------|--------------|----------------|
B|--------------|---------------|--------------|----------------|
G|--------------|---------------|--------------|----------------|
D|--------------|---------------|--------------|-----------7h9--|
A|--------------|-------------2-|--------------|--------7h9-----|
B|-0--0-0-2b(3)-|-0--0-0-2b(3)--|-0--0-0-2b(3)-|-0--0-0---------|

e|-----------------|---------------|-----------------|----------------|
B|-----------------|---------------|-----------------|----------------|
G|-----------------|---------------|-----------------|----------------|
D|-----------------|---------------|-----------------|----------------|
A|-----------------|---------------|-8-----8-----8---|---8-----8---10-|
B|-6-0-0-6-0-0-6-0-|-0-6-0-0-6-0-8-|-6-0-0-6-0-0-6-0-|-0-6-0-0-6-0-8--|
                                 PM-------------------------------->

[PRE-CHORUS]

e|----------|----------|----------|----------|-----------|----------|----------|----------|
B|----------|----------|----------|----------|-----------|----------|----------|----------|
G|----------|----------|----------|----------|-----------|----------|----------|----------|
D|----------|----------|----------|----------|-----------|----------|----------|----------|
A|----------|----------|----------|----------|-----------|----------|----------|----------|
B|-0----3---|-0--3-3-1-|-0----3---|-0--3-3-1-|-0--0--3---|-0--3-3-1-|-0----3---|-0--3-3-1-|

[CHORUS]

[Rhythm Guitar]

e|------------|------------|------------|------------|------------|------------|-------------|-------------|
B|------------|------------|------------|------------|------------|------------|-------------|-------------|
G|------------|------------|------------|------------|------------|------------|-------------|-------------|
D|------------|------------|------------|------------|------------|------------|-------------|-------------|
A|-2----------|--------5---|-2----------|--------12--|-2----------|--------3---|-------------|-------------|
B|-0----------|--------3---|-0----------|--------10--|-0----------|--------1---|-------------|-------------|

[Lead Guitar]

e|------------|------------|------------|------------|------------|------------|-------------|-------------|
B|------------|------------|------------|------------|------------|------------|-------------|-------------|
G|-8--8-8-6-8-|-9\-----2---|-8--8-8-6-8-|-9\-----2---|-8--8-8-6-8-|-9\---------|-------------|-------------|
D|------------|------------|------------|------------|------------|------------|-------------|-------------|
A|-6--6-6-4-6-|-7\-----0---|-6--6-6-4-6-|-7\-----0---|-6--6-6-4-6-|-7\-----3---|-------------|-------------|
B|------------|------------|------------|------------|------------|--------1---|-------------|-------------|


[BRIDGE]

[Rhythm Guitar]

e|----------|-----------------------|-----------------------|------------------------|-----------------------|
B|------x-x-|-----------------------|-----------------------|------------------------|-----------------------|
G|------x-x-|-----------------------|-----------------------|------------------------|-----------------------|
D|------x-x-|--------------------4--|-3---------------------|---------------------4--|-3---------------------|
A|------x-x-|--------------------2--|-1---------------------|---------------------2--|-1---------------------|
B|----------|-0---0--2--3--2--0-----|-----2--0--2--3--2--1--|-0---0--2--3--2--0------|-----2--0--2--3--2--1--|

[Lead Guitar]

e|----------|-----------------------|-----------------------|------------------------|-----------------------|
B|----------|-----------------------|-----------------------|------------------------|-----------------------|
G|----------|-----------/16---/15---|/14~~~~----12-14-9--10-|-11~~~~----/16---/15----|/14~~~~----12-14-9--10-|
D|----------|-----------------------|-----------------------|------------------------|-----------------------|
A|----------|-----------------------|-----------------------|------------------------|-----------------------|
B|----------|-----------------------|-----------------------|------------------------|-----------------------|

[Rhythm Guitar]

e|----------------------|-----------------------|-----------------------|-----------------------|
B|----------------------|-----------------------|-----------------------|-----------------------|
G|----------------------|-----------------------|-----------------------|-----------------------|
D|--------------------4-|-3---------------------|---------------------4-|-3---------------------|
A|--------------------2-|-1---------------------|---------------------2-|-1---------------------|
B|-0---0--2--3--2--0----|-----2--0--2--3--2--1--|-0---0--2--3--2--0-----|-----2--0--2--3--2--1--|

[Lead Guitar]

e|----------------------|-----------------------|-----------------------|-----------------------|
B|----------------------|-----------------------|-----------------------|-----------------------|
G|-----------/16---/15--|/14~~~~----12-14-9--10-|-11~~~~----/16---/15---|/14~~~~----12-14-9--10-|
D|----------------------|-----------------------|-----------------------|-----------------------|
A|----------------------|-----------------------|-----------------------|-----------------------|
B|----------------------|-----------------------|-----------------------|-----------------------|

[Rhythm Guitar]

e|----------------------|-----------------------|-----------------------|-----------------------|
B|----------------------|-----------------------|-----------------------|-----------------------|
G|----------------------|-----------------------|-----------------------|-----------------------|
D|--------------------4-|-3---------------------|-2---------------x-x-x-|-3--------------x-x-x--|
A|--------------------2-|-1---------------------|-0---------------x-x-x-|-1--------------x-x-x--|
B|-0---0--2--3--2--0----|-----2--0--2--3--2--1--|-----------------------|-----------------------|

[Lead Guitar]

e|----------------------|-----------------------|-----------------------|-----------------------|
B|-------------14-15-17-|-14--14-12-14-15-14-13-|-----------------------|-----------------------|
G|-11~~~~---16----------|-----------------------|-4b(6)---------4b(6)p2-|-6b(7)-6b(7)p4---------|
D|----------------------|-----------------------|-----------------------|---------------5b(1/2)-|
A|----------------------|-----------------------|-----------------------|-----------------------|
B|----------------------|-----------------------|-----------------------|-----------------------|

[BREAK]

e|----------------|-------x-x-10-10-|----------------|-------x-x-10-10-|
B|---------3------|-------x-x-10-10-|---------3------|-------x-x-10-10-|
G|---------2------|-------x-x-7--7--|---------2------|-------x-x-7--7--|
D|---------1------|-----------7--7--|---------1------|-----------7--7--|
A|---------2------|-----------------|---------2------|-----------------|
B|-0---0----------|-0---0-----------|-0---0----------|-0---0-----------|

e|----------------|-------x-x-10-10-|----------------|-----------10----|
B|---------3------|-------x-x-10-10-|---------3------|-----------10----|
G|---------2------|-------x-x-7--7--|---------2------|-----------7-----|
D|---------1------|-----------7--7--|---------1------|-----------7-----|
A|---------2------|-----------------|---------2------|-------7h9-------|
B|-0---0----------|-0---0-----------|-0---0----------|-0---0-----------|

e|----------------|-----------------|
B|---------3------|-----------------|
G|---------2------|-----------------|
D|---------1------|------------7h9--|
A|---------2------|--------7h9------|
B|-0---0----------|-0---0-----------|

e|---------|--------|---------|-----------|
B|---------|--------|---------|-----------|
G|---------|--------|---------|-----------|
D|---------|--------|---------|-----------|
A|---------|--------|---------|-----------|
B|-6-0-0-7-|-0-0-8-0|-0-9-0-0-|-10-0-0-11-|

[CHORUS]

[Rhythm Guitar]

e|------------|------------|------------|------------|------------|------------|
B|------------|------------|------------|------------|------------|------------|
G|------------|------------|------------|------------|------------|------------|
D|------------|------------|------------|------------|------------|------------|
A|-2----------|--------5---|-2----------|--------12--|-2----------|--------3---|
B|-0----------|--------3---|-0----------|--------10--|-0----------|--------1---|

[Lead Guitar]

e|------------|------------|------------|------------|------------|------------|
B|------------|------------|------------|------------|------------|------------|
G|-8--8-8-6-8-|-9\-----2---|-8--8-8-6-8-|-9\-----2---|-8--8-8-6-8-|-9\---------|
D|------------|------------|------------|------------|------------|------------|
A|-6--6-6-4-6-|-7\-----0---|-6--6-6-4-6-|-7\-----0---|-6--6-6-4-6-|-7\-----3---|
B|------------|------------|------------|------------|------------|--------1---|

[Rhythm Guitar]

e|------------|------------|------------|------------|------------|------------|-------------|-------------|
B|------------|------------|------------|------------|------------|------------|-------------|-------------|
G|------------|------------|------------|------------|------------|------------|-------------|-------------|
D|------------|------------|------------|------------|------------|------------|-------------|-------------|
A|-2----------|--------5---|-2----------|--------12--|-2----------|--------3---|-------------|-------------|
B|-0----------|--------3---|-0----------|--------10--|-0----------|--------1---|-------------|-------------|

[Lead Guitar]

e|------------|------------|------------|------------|------------|------------|-------------|-------------|
B|------------|------------|------------|------------|------------|------------|-------------|-------------|
G|-8--8-8-6-8-|-9\-----2---|-8--8-8-6-8-|-9\-----2---|-8--8-8-6-8-|-9\---------|-------------|-------------|
D|------------|------------|------------|------------|------------|------------|-------------|-------------|
A|-6--6-6-4-6-|-7\-----0---|-6--6-6-4-6-|-7\-----0---|-6--6-6-4-6-|-7\-----3---|-------------|-------------|
B|------------|------------|------------|------------|------------|--------1---|-------------|-------------|

[OUTRO]

e|-----------------------|-----------------------|-----------------------|-----------------------|
B|-----------------------|-----------------------|-----------------------|-----------------------|
G|-----------------------|-----------------------|-----------------------|-----------------------|
D|--------------------4--|-3---------------------|--------------------4--|-3---------------------|
A|-2---2--4--5--4--2--2--|-1---4--2--4--5--4--3--|-2---2--4--5--4--2--2--|-1---4--2--4--5--4--3--|
B|-0---0--2--3--2--0-----|-----2--0--2--3--2--1--|-0---0--2--3--2--0-----|-----2--0--2--3--2--1--|
       PM-----------           PM--------------        PM-----------           PM--------------

e|-----------------------|-----------------------|-----------------------|-----------------------|
B|-----------------------|-----------------------|-----------------------|-----------------------|
G|-----------------------|-----------------------|-----------------------|-----------------------|
D|--------------------4--|-3---------------------|--------------------4--|-3---------------------|
A|-2---2--4--5--4--2--2--|-1---4--2--4--5--4--3--|-2---2--4--5--4--2--2--|-1---4--2--4--5--4--3--|
B|-0---0--2--3--2--0-----|-----2--0--2--3--2--1--|-0---0--2--3--2--0-----|-----2--0--2--3--2--1--|
       PM-----------           PM--------------        PM-----------           PM--------------


e|-----------------------|----------------------|
B|-----------------------|----------------------|
G|-----------------------|----------------------|
D|--------------------4--|-3--------------------|
A|-2---2--4--5--4--2--2--|-1---4--2--4--5--4--3-|
B|-0---0--2--3--2--0-----|-----2--0--2--3--2--1-|
       PM--------------        PM--------------

[Rhythm Guitar]

e|-----------------------|-----------------------|-----------------------|-----------------------|
B|-----------------------|-----------------------|-----------------------|-----------------------|
G|-----------------------|-----------------------|-----------------------|-----------------------|
D|--------------------4--|-3---------------------|--------------------4--|-3---------------------|
A|--------------------2--|-1---------------------|--------------------2--|-1---------------------|
B|-0---0--2--3--2--0-----|-----2--0--2--3--2--1--|-0---0--2--3--2--0-----|-----2--0--2--3--2--1--|

[Lead Guitar]
e|-----------------------|-----------------------|-----------------------|-----------------------|
B|-----------------------|-----------------------|-----------------------|-----------------------|
G|-----------/16---/15---|/14~~~~----12-14-9--10-|-11~~~~----/16---/15---|/14~~~~----12-14-9--10-|
D|-----------------------|-----------------------|-----------------------|-----------------------|
A|-----------------------|-----------------------|-----------------------|-----------------------|
B|-----------------------|-----------------------|-----------------------|-----------------------|

[Rhythm Guitar]

e|-----------------------|-----------------------|-----------------------|-----------------------|
B|-----------------------|-----------------------|----3------------------|-----------------------|
G|-----------------------|-----------------------|----2------------------|-----------------------|
D|--------------------4--|-3---------------------|----1------------------|-----------------------|
A|--------------------2--|-1---------------------|----2------------------|-----------------------|
B|-0---0--2--3--2--0-----|-----2--0--2--3--2--1--|-0------0--0--7--7--6--|-5----2--0--2--3--2--1-|

[Lead Guitar]

e|-----------------------|-----------------------|-----------------------|-----------------------|
B|--------------14-15-17-|-14--14-12-14-15-14-13-|-12-----12-12----------|------14-12-14-15-14-13|
G|-11~~~~----16----------|-----------------------|--------------11-11-10-|-9---------------------|
D|-----------------------|-----------------------|-----------------------|-----------------------|
A|-----------------------|-----------------------|-----------------------|-----------------------|
B|-----------------------|-----------------------|-----------------------|-----------------------|


e|-----------------------|-----------------------|
B|-----------------------|-----------------------|
G|-----------------------|-----------------------|
D|--------------------4--|-3---------------------|
A|-2---2--4--5--4--2--2--|-1---4--2--4--5--4--3--|
B|-0---0--2--3--2--0-----|-----2--0--2--3--2--1--|







************************************

| x   Dead note
| (n) Ghost note
| h   Hammer-on
| p   Pull-off
| b   Bend
| /   Slide up
| \   Slide down
| ~   Vibrato
| PM  Palm mute

************************************
Suggest correction
Give kudos to tab author, rate the tab!
1 2 3 4 5
comments
print report bad tab
guest
You may want to rate the tab now too:
select rating
Wanna post a correction for this tab? Suggest correction