Oops, an error
Loading. Please wait.

Tomorrow bass

version 2
version 2

Whole song

Interactive

8,427 views 15 this week
6 commentsread comments
1 2 3 4 5
x 14
add to favorites
×
Save as Personal and add changes to this tab that will be seen only by you. Learn more ›
×
You can save this tab as Personal to edit and correct it or add notes. All changes will be seen only by you. Learn more »
launch autoscroll
font size
0
reset
guitar tuner
backing track
0:00
0:00
edit
Autoscroll
slow
fast
+/-
esc
set tempo
stop
Author
Difficulty
-----------------------------------------------------------------------------
			     Tomorrow - Silverchair
-----------------------------------------------------------------------------

i saw a lot of really bad tabs for this song so idecided to tab 
it the way i play it live it sounds perfect and im pretty sure 
it is perfect.

Tabbed By : Bassersam
e-mail: rugbystar69@msn.com

Tuning: standard

Intro
G|-------------------|
D|-------------------|
A|-3-2---------------|
E|-----3-5-----------|

Verse: just follow guitar changes 
:play until distortion comes in
G|-----------------------------------------------|
D|-----------------------------------------------|
A|-------------------3h5-3-3p0-------------------|
E|-5-5-5-55-333-33-3-----------3-----------------|

Bridge: when distortion comes in 
:play 3x on the 4th time dont play hammer ons   
G|----------------------------5p0----------------|
D|-------------------------5h7-------------------|
A|---------------------5h7-----------------------|
E|-5-5-5-55/7-7-7-7/88---------------------------|

play this before the 1st chorus 
you will hear the song start to get heavier 
G|-----------------------------------|
D|-----------------------------------|x1
A|-----------------------------------|
E|-5-5-5-5-5-5-5-5-5-5-5-5-5-5-------|

Chorus
play until next verse
G|------------------------------------------------|
D|------------------------------------------------|
A|--------5-5-55-5-3-3-33-3-5-5-55----------------|
E|-5-5-55-----------------------------------------|

play the chorus behind the solo

this is a great song and i no it is 100% right because i play this live 
well it at least sounds perfect.

            
            
Suggest correction
Creating personal tab
Creating personal tab
You can edit any tab online and save it as your Personal.

You can edit, replace or remove any tab part or add personal notes – all changes will be seen only by you.

Personal tabs can be accessed anytime from any device, even offline.
Learn more »
comments
print report bad tab
6 comments total. Showing first comments.
0 reply
TheBassist123 10 Jul 26, 2007 11:25 PM

Bloody Perfect man great tab!

+1 reply
stryker4526 10 Aug 19, 2007 03:37 PM

Right. Perfect except for all of the little intricacies and scales that are performed during the song. Maybe "perfect" for extremely mediocre bassists, which are pretty much 99% of you out there. All you tabbers are so damn pompous with your "oh I know this is 100% correct" BS. Guess what? It's not. Learn to play better and maybe you'll know what to do when there are scales.

+1 reply
davidpn 207 Oct 19, 2008 02:30 PM

I'm a mediocre bassist and I know this tab is missing bits, like stryker says. It's close as a simplified version, but I wouldn't credit it as being Silverchair's.

guest
You may want to rate the tab now too:
select rating
Wanna post a correction for this tab? Suggest correction