Oops, an error
Loading. Please wait.

World Upon Your Shoulders Tab

version 4
version 4

Whole song

Interactive

22 views 1 this week
no commentswrite comment
1 2 3 4 5
1 last vote to show rating
add to favorites
launch autoscroll
font size
0
reset
how to read this tab
guitar tuner
Autoscroll
slow
fast
+/-
esc
set tempo
stop
Help us to improve Ultimate-Guitar.com Take our survey!
×
Author
Difficulty
intermediate
About this tab version
I've studied a lot of the live videos and this is the way they play it. Was this info helpful? Yes No
Silverchair
World Upon Your Shoulders
Diorama (2002)

Tuning - EADGBe

[INTRO]

e|-------7--------|-----------3/5-5-5-|-3----3------2h-|-3---3--3-------|
B|-/8-----------8-|----8---0--3/5-5-5-|-3--------------|---3-3-----3----|
G|--0--------0----|------0----0---0-0-|-0--------0-----|-----0--------0-|
D|----------------|-------------------|----------------|----------------|
A|----------------|-------------------|----------------|----------------|
E|----------------|-------------------|----------------|----------------|

e|----7---7-8---8-|---10--------3/5-5-|-3----3------3--|-2p0------------|
B|-/8---8-----8---|-8----8---0--3/5-5-|-3--------3-----|----3/5---------|
G|--0---0-----0---|-0------0----0---0-|-0--------------|--------2-0-----|
D|----------------|-------------------|----------------|------------0-1-|
A|----------------|-------------------|----------------|----------------|
E|----------------|-------------------|----------------|----------------|

[VERSE]

e|--------------|--------------|---------------|---------------|
B|-------8----8-|-8--8\-----3--|-7------5----5-|-5--5--5--5----|
G|-------0----0-|-0--0------0--|-0------0----0-|-0--0--0--0----|
D|-------9----9-|-9--9\-----4--|-7------5----5-|-5--5--5--5----|
A|-------7----7-|-7--7\-----2--|-5------3----3-|-3--3--3--3----|
E|-0------------|--------------|---------------|---------------|

e|--------------|--------------|---------------|---------------|
B|-------8----8-|-8--8\-----3--|-7------8------|-3--5----------|
G|-------0----0-|-0--0------0--|-0------0------|-0--0----------|
D|-------9----9-|-9--9\-----4--|-7------9------|-4--5----------|
A|-------7----7-|-7--7\-----2--|-5------7------|-2--3----------|
E|-0------------|--------------|---------------|---------------|


e|--------------|--------------|---------------|---------------|
B|-------8----8-|-8--8\-----3--|-7------5----5-|-5--5--5--5----|
G|-------0----0-|-0--0------0--|-0------0----0-|-0--0--0--0----|
D|-------9----9-|-9--9\-----4--|-7------5----5-|-5--5--5--5----|
A|-------7----7-|-7--7\-----2--|-5------3----3-|-3--3--3--3----|
E|-0------------|--------------|---------------|---------------|

e|--------------|--------------|---------------|---------------|
B|-------8----8-|-8--8\-----3--|-7------8------|-3--5----------|
G|-------0----0-|-0--0------0--|-0------0------|-0--0----------|
D|-------9----9-|-9--9\-----4--|-7------9------|-4--5----------|
A|-------7----7-|-7--7\-----2--|-5------7------|-2--3----------|
E|-0------------|--------------|---------------|---------------|

[PRE-CHORUS]

e|-2------2-----|-2--2---2---3-|-----3---------|-3-3-3-3--3-3--|
B|-0------0-----|-0--0---0---1-|-----1---------|-1-1-1-1--1-1--|
G|-2------2-----|-2--2---2---0-|-0---0---------|-0-0-0-0--0-0--|
D|-0------0-----|-0--0---0---2-|-2---2---------|-0-2-0-2--2-2--|
A|-2------2-----|-2--2---2---0-|-0---0---------|-0-0-0-0--0-0--|
E|--------------|--------------|---------------|---------------|

e|-2------2-----|-2--2---2---3-|---------------|---------------|
B|-0------0-----|-0--0---0---1-|---------------|---------------|
G|-2------2-----|-2--2---2---0-|---------------|---------------|
D|-0------0-----|-0--0---0---2-|---------------|---------------|
A|-2------2-----|-2--2---2---0-|---------------|---------------|
E|--------------|--------------|---------------|---------------|

[CHORUS]

e|-2------2-----|-2--2---2---3-|------3--------|-3-3-3-3--3----|
B|-0------0-----|-0--0---0---1-|------1--------|-1-1-1-1--1----|
G|-2------2-----|-2--2---2---0-|-0----0--------|-0-0-0-0--0----|
D|-0------0-----|-0--0---0---2-|-2----2--------|-2-2-2-2--2----|
A|-x------x-----|-x--x---x---0-|-0----0--------|-0-0-0-0--0----|
E|-2------2-----|-2--2---2-----|---------------|---------------|

e|-2------2-----|-2--2---2---3-|----3---3-3--3-|--3-3----3-----|
B|-0------0-----|-0--0---0---1-|----1---1-1--3-|--3-3----3-----|
G|-2------2-----|-2--2---2---0-|----0---0-0--0-|--0-0----0-----|
D|-0------0-----|-0--0---0---2-|----2---2-2--0-|--0-0----0-----|
A|-x------x-----|-x--x---x---0-|----0---0-0--2-|--2-2----2-----|
E|-2------2-----|-2--2---2-----|-------------3-|--3-3----3-----|

e|-2------2-----|-2--2---2---3-|---------------|---------------|
B|-0------0-----|-0--0---0---1-|---------------|---------------|
G|-2------2-----|-2--2---2---0-|---------------|---------------|
D|-0------0-----|-0--0---0---2-|---------------|---------------|
A|-x------x-----|-x--x---x---0-|---------------|---------------|
E|-2------2-----|-2--2---2-----|---------------|---------------|

e|-2--2--2--2---|-2--2-------3-|---------------|---------------|
B|-0--0--0--0---|-0--0-------1-|---------------|---------------|
G|-2--2--2--2---|-2--2-------0-|---------------|---------------|
D|-0--0--0--0---|-0--0-------2-|---------------|---------------|
A|-x--x--x--x---|-x--x-------0-|---------------|---------------|
E|-2--2--2--2---|-2--2---------|---------------|---------------|

e|------------0-|-2p0-------------|
B|--------------|-----3/5---------|
G|--------------|---------2p0-----|
D|--------------|-------------0-1-|
A|--------------|-----------------|
E|--------------|-----------------|

[VERSE]

e|--------------|--------------|---------------|---------------|
B|-------8------|-----------3--|-7------5------|---------------|
G|-------0------|-----------0--|-0------0------|---------------|
D|-------9------|-----------4--|-7------5------|---------------|
A|-------7------|-----------2--|-5------3------|---------------|
E|-0------------|--------------|---------------|---------------|

e|--------------|--------------|---------------|---------------|
B|-------8------|-----------3--|-7------8------|-3--5----------|
G|-------0------|-----------0--|-0------0------|-0--0----------|
D|-------9------|-----------4--|-7------9------|-4--5----------|
A|-------7------|-----------2--|-5------7------|-2--3----------|
E|-0------------|--------------|---------------|---------------|

[PRE-CHORUS]

e|-2------2-----|-2--2---2---3-|-----3---------|-3/5-5--5\3-3--|
B|-0------0-----|-0--0---0---1-|-----1---------|-1/3-3--3\1-1--|
G|-2------2-----|-2--2---2---0-|-0---0---------|-0-0-0--0-0-0--|
D|-0------0-----|-0--0---0---2-|-2---2---------|-2/4-4--4\2-2--|
A|-2------2-----|-2--2---2---0-|-0---0---------|-0-0-0--0-0-0--|
E|--------------|--------------|---------------|---------------|

e|-2------2-----|-2--2---2---3-|---------------|---------------|
B|-0------0-----|-0--0---0---1-|---------------|---------------|
G|-2------2-----|-2--2---2---0-|---------------|---------------|
D|-0------0-----|-0--0---0---2-|---------------|---------------|
A|-2------2-----|-2--2---2---0-|---------------|---------------|
E|--------------|--------------|---------------|---------------|

[CHORUS]

e|-2------2-----|-2--2---2---3-|------3--------|-3-3-3-3--3----|
B|--0-----0-----|-0--0---0---1-|------1--------|-1-1-1-1--1----|
G|---2----2-----|-2--2---2---0-|-0----0--------|-0-0-0-0--0----|
D|----0---0-----|-0--0---0---2-|-2----2--------|-2-2-2-2--2----|
A|----x---x-----|-x--x---x---0-|-0----0--------|-0-0-0-0--0----|
E|----2---2-----|-2--2---2-----|---------------|---------------|

e|-2------2-----|-2--2---2---3-|----3---3-3--3-|--3-3----3-----|
B|-0------0-----|-0--0---0---1-|----1---1-1--3-|--3-3----3-----|
G|-2------2-----|-2--2---2---0-|----0---0-0--0-|--0-0----0-----|
D|-0------0-----|-0--0---0---2-|----2---2-2--0-|--0-0----0-----|
A|-x------x-----|-x--x---x---0-|----0---0-0--2-|--2-2----2-----|
E|-2------2-----|-2--2---2-----|-------------3-|--3-3----3-----|

e|-2------2-----|-2--2---2---3-|------3--------|-3-3-3-3--3----|
B|-0------0-----|-0--0---0---1-|------1--------|-1-1-1-1--1----|
G|-2------2-----|-2--2---2---0-|-0----0--------|-0-0-0-0--0----|
D|-0------0-----|-0--0---0---2-|-2----2--------|-2-2-2-2--2----|
A|-x------x-----|-x--x---x---0-|-0----0--------|-0-0-0-0--0----|
E|-2------2-----|-2--2---2-----|---------------|---------------|

e|-2--2--2--2---|-2--2-------3-|---------------|---------------|
B|-0--0--0--0---|-0--0-------1-|---------------|---------------|
G|-2--2--2--2---|-2--2-------0-|---------------|---------------|
D|-0--0--0--0---|-0--0-------2-|---------------|---------------|
A|-x--x--x--x---|-x--x-------0-|---------------|---------------|
E|-2--2--2--2---|-2--2---------|---------------|---------------|

[BRIDGE]

e|----------6-------|---------6-------|---------3-------|---------3-------|
B|------4-----4---4-|-----4-----4---4-|-----1-----1---1-|-----1-----1---1-|
G|--------0-----0---|-------0-----0---|-------0-----0---|-------0-----0---|
D|----5-------------|---5-------------|---2-------------|---2-------------|
A|--6---------------|-6---------------|-3---------------|-3---------------|
E|------------------|-----------------|-----------------|-----------------|

e|----------6-------|---------6-------|---------3-------|---------3-------|
B|------4-----4---4-|-----4-----4---4-|-----1-----1---1-|-----1-----1---1-|
G|--------0-----0---|-------0-----0---|-------0-----0---|-------0-----0---|
D|----5-------------|---5-------------|---2-------------|---2-------------|
A|--6---------------|-6---------------|-3---------------|-3---------------|
E|------------------|-----------------|-----------------|-----------------|

e|----------6-------|---------6-------|-----------------|-----------------|
B|------4-----4---4-|-----4-----4---4-|---------1-------|---------1-------|
G|--------0-----0---|-------0-----0---|-----0-----0---0-|-----0-----0---0-|
D|----5-------------|---5-------------|---2---2-----2---|---2---2-----2---|
A|--6---------------|-6---------------|-3---------------|-0---------------|
E|------------------|-----------------|-----------------|-----------------|


[SOLO]

e|-(0)--------------0-2-|3-2h3p2p0-0---0-0-----0-|-0-0-3-3-3-3-3-3-3-3-|-3-3-3-3/5-5-5-0-|
B|-(0)------------------|----------3/5-5-5\3p0-1-|-0-1-1-1-1-1-1-1-1-1-|-1-1-1-1/3-3-3-0-|
G|-(0)------------------|------------------------|---------------------|-----------------|
D|--2-------------------|------------------------|---------------------|-----------------|
A|--2-------------------|------------------------|---------------------|-----------------|
E|--0-------------------|------------------------|---------------------|-----------------|

e|-(0)--------------0-2-|-3-2h3p2p0-0---0-----0-----0-|-0-0-3-3-3-3-3-3-3-3-|-3-3-3-3/5-5-5-0-|
B|-(0)------------------|-----------3/5-5\3p0-5\3p0-1-|-0-1-1-1-1-1-1-1-1-1-|-1-1-1-1/3-3-3-0-|
G|-(0)------------------|-----------------------------|---------------------|-----------------|
D|--2-------------------|-----------------------------|---------------------|-----------------|
A|--2-------------------|-----------------------------|---------------------|-----------------|
E|--0-------------------|-----------------------------|---------------------|-----------------|

e|-(0)--------------0-2-|-3-2h3p2p0-0---0-----0-----0-|-0-0-3-3-3-3-3-3-3-3-|-3-3-3-3/5-5-5-0-|
B|-(0)------------------|-----------3/5-5\3p0-5\3p0-1-|-0-1-1-1-1-1-1-1-1-1-|-1-1-1-1/3-3-3-0-|
G|-(0)------------------|-----------------------------|---------------------|-----------------|
D|--2-------------------|-----------------------------|---------------------|-----------------|
A|--2-------------------|-----------------------------|---------------------|-----------------|
E|--0-------------------|-----------------------------|---------------------|-----------------|

e|-(0)--------------0-2-|-3-2h3p2p0-0---0-----0-----0-|-0-0-3-3-3-3-3-3-3-3-|-3-3-3-3/5-5-5-0-|
B|-(0)------------------|-----------3/5-5\3p0-5\3p0-1-|-0-1-1-1-1-1-1-1-1-1-|-1-1-1-1/3-3-3-0-|
G|-(0)------------------|-----------------------------|---------------------|-----------------|
D|--2-------------------|-----------------------------|---------------------|-----------------|
A|--2-------------------|-----------------------------|---------------------|-----------------|
E|--0-------------------|-----------------------------|---------------------|-----------------|

e|----------------------|------------------------|------------------------|-------------------------|
B|----------------------|------------------------|------------------------|-------------------------|
G|----------------------|------------------------|----------0-----0-----0-|-----0-----0-----0-----0-|
D|-------------14--12\--|------------14--12\--10-|--------9-----7-----5---|---7-----5-----4-----2---|
A|--------14-------12\--|-------14-------12\--10-|---7-10-----9-----7-----|-9-----7-----5-----3-----|
E|--/12-----------------|-/12-----------------8--|------------------------|-------------------------|


e|--------0-----|-0---0------2-|-2---2---2---2-|-2---2---2-2-2-|
B|--------0-----|-0---0------3-|-3---3---3---3-|-3---3---3-3-3-|
G|--------0-----|-0---0------4-|-4---4---4---4-|-4---4---4-4-4-|
D|--------2-----|-2---2------4-|-4---4---4---4-|-4---4---4-4-4-|
A|--------2-----|-2---2------2-|-2---2---2---2-|-2---2---2-2-2-|
E|-0------0-----|-0---0--------|---------------|---------------|

e|--------0-----|-0---0------0-|-0---0---0---0-|-0---0---0-0-0-|
B|--------0-----|-0---0------0-|-0---0---0---0-|-0---0---0-0-0-|
G|--------0-----|-0---0------4-|-4---4---4---4-|-4---4---4-4-4-|
D|--------2-----|-2---2------2-|-2---2---2---2-|-2---2---2-2-2-|
A|--------2-----|-2---2------4-|-4---4---4---4-|-4---4---4-4-4-|
E|-0------0-----|-0---0--------|---------------|---------------|

e|--------0-----|-0---0------0-|---------------|--------0-------|
B|--------0-----|-0---0------1-|---------------|--------3/5-----|
G|--------0-----|-0---0------0-|---------------|-----------(0)--|
D|--------2-----|-2---2------2-|---------------|----------------|
A|--------2-----|-2---2------3-|---------------|--------------0-|
E|-0------0-----|-0---0------3-|---------------|------------3---|

[PRE-CHORUS]

e|-2------2-----|-2--2---2---3-|-----3---------|-3-3-3-3--3-3--|
B|-0------0-----|-0--0---0---1-|-----1---------|-1-1-1-1--1-1--|
G|-2------2-----|-2--2---2---0-|-0---0---------|-0-0-0-0--0-0--|
D|-0------0-----|-0--0---0---2-|-2---2---------|-2-2-2-2--2-2--|
A|-2------2-----|-2--2---2---0-|-0---0---------|-0-0-0-0--0-0--|
E|--------------|--------------|---------------|---------------|

e|-2------2-----|-2--2---2---3-|---------------|---------------|
B|-0------0-----|-0--0---0---1-|---------------|---------------|
G|-2------2-----|-2--2---2---0-|---------------|---------------|
D|-0------0-----|-0--0---0---2-|---------------|---------------|
A|-2------2-----|-2--2---2---0-|---------------|---------------|
E|--------------|--------------|---------------|---------------|

[CHORUS]

e|-2------2-----|-2--2---2---3-|------3--------|-3-3-3-3--3----|
B|-0------0-----|-0--0---0---1-|------1--------|-1-1-1-1--1----|
G|-2------2-----|-2--2---2---0-|-0----0--------|-0-0-0-0--0----|
D|-0------0-----|-0--0---0---2-|-2----2--------|-2-2-2-2--2----|
A|-x------x-----|-x--x---x---0-|-0----0--------|-0-0-0-0--0----|
E|-2------2-----|-2--2---2-----|---------------|---------------|

e|-2------2-----|-2--2---2---3-|----3---3-3--3-|--3-3----3-----|
B|-0------0-----|-0--0---0---1-|----1---1-1--3-|--3-3----3-----|
G|-2------2-----|-2--2---2---0-|----0---0-0--0-|--0-0----0-----|
D|-0------0-----|-0--0---0---2-|----2---2-2--0-|--0-0----0-----|
A|-x------x-----|-x--x---x---0-|----0---0-0--2-|--2-2----2-----|
E|-2------2-----|-2--2---2-----|-------------3-|--3-3----3-----|

e|-2------2-----|-2--2---2---3-|------3--------|-3-3-3-3--3----|
B|-0------0-----|-0--0---0---1-|------1--------|-1-1-1-1--1----|
G|-2------2-----|-2--2---2---0-|-0----0--------|-0-0-0-0--0----|
D|-0------0-----|-0--0---0---2-|-2----2--------|-2-2-2-2--2----|
A|-x------x-----|-x--x---x---0-|-0----0--------|-0-0-0-0--0----|
E|-2------2-----|-2--2---2-----|---------------|---------------|

e|-2------2-----|-2--2---2---3-|------3--------|-3-3-3-3--3----|
B|-0------0-----|-0--0---0---1-|------1--------|-1-1-1-1--1----|
G|-2------2-----|-2--2---2---0-|-0----0--------|-0-0-0-0--0----|
D|-0------0-----|-0--0---0---2-|-2----2--------|-2-2-2-2--2----|
A|-x------x-----|-x--x---x---0-|-0----0--------|-0-0-0-0--0----|
E|-2------2-----|-2--2---2-----|---------------|---------------|

e|-2------2-----|-2--2---2---3-|------3--------|-3-3-3-3--3----|
B|-0------0-----|-0--0---0---1-|------1--------|-1-1-1-1--1----|
G|-2------2-----|-2--2---2---0-|-0----0--------|-0-0-0-0--0----|
D|-0------0-----|-0--0---0---2-|-2----2--------|-2-2-2-2--2----|
A|-x------x-----|-x--x---x---0-|-0----0--------|-0-0-0-0--0----|
E|-2------2-----|-2--2---2-----|---------------|---------------|


e|-2--2--2--2---|-2--2-------3-|---------------|---------------|
B|-0--0--0--0---|-0--0-------1-|---------------|---------------|
G|-2--2--2--2---|-2--2-------0-|---------------|---------------|
D|-0--0--0--0---|-0--0-------2-|---------------|---------------|
A|-x--x--x--x---|-x--x-------0-|---------------|---------------|
E|-2--2--2--2---|-2--2---------|---------------|---------------|




************************************

| x   Dead note
| (n) Ghost note
| h   Hammer-on
| p   Pull-off
| b   Bend
| /   Slide up
| \   Slide down
| ~   Vibrato

************************************
Suggest correction
Give kudos to tab author, rate the tab!
1 2 3 4 5
comments
print report bad tab
guest
You may want to rate the tab now too:
select rating
Wanna post a correction for this tab? Suggest correction