Oops, an error
Loading. Please wait.

A Great Fire Bass Tab

version 1
version 1

Whole song

Interactive

680 views 1 this week
no commentswrite comment
1 2 3 4 5
please rate
add to favorites
launch autoscroll
font size
0
reset
guitar tuner
Autoscroll
slow
fast
+/-
esc
set tempo
stop
Help us to improve Ultimate-Guitar.com Take our survey!
×
Author
Tuning
C# G# C# F# A# D#
+++++++++++++++++++++++++++++
| Silverstein- A Great Fire |
+++++++++++++++++++++++++++++


"I can see through my tired eyes..."


Tuning: Drop C# (C#ADG)



Intro
1.
G||---------------------------------------------------------------------------------------|
D||---------------------------------------------------------------------------------------|
A||-000----------------------------------------000----------------------------------------|
C#|-----0~--00000x-00000x-0x---00000x-00000x-0-----0~--00000x-00000x-0x---00000x-00000x-0-|

2.
G||---------------------------------------------------------------------------------------------|
D||---------------------------------------------------------------------------------------------|
A||-000----------------------------------------000------------------------------------------000-|
C#|-----0~--00000x-00000x-0x---00000x-00000x-0-----0~--00000x-00000x-0x---00000000-00000000-----|

Verse
"Burning down..."
3.
G||------------------------------------------------|
D||------------------------------------------------|
A||----000-----000---------------------------------|--x2
C#|-0~------0~------0~--3-2-0x--55-55-77-77-7-5-3x-|

"Dont try..."
4.
G||---------------------------------------------------------|
D||---------------------------------------------------------|
A||-7------7------6------6----------------------------------|--x2
C#|--00000--00000--00000--00000-555555-555555-777777-887755-|

Pre-Chorus
"And as I heard..."
5.
G||--------------------------------------------------|
D||--------------------------------------------------|
A||-000------------------------------------------000-|
C#|-----0~--00000x-00000x-0x---00000000-00000000-----|

Chorus
"I can see through the flames..."
6.
G||-----------------------------------------------------------------------------------------|
D||-----------------------------------------------------------------------------------------|
A||------------0-0-00-000----------------------------------0-0-00-000-----------------------|
C#|-0-0-00-000------------3-3-33-333-2-2-22-222-0-0-00-000------------3-3-33-333-7-7-77-777-|

Verse
"I threw you over my shoulder..."
7.
G||---------------------------------------------------------|
D||---------------------------------------------------------|
A||-7------7------6------6----------------------------------|--x2
C#|--00000--00000--00000--00000-555555-555555-777777-887755-|

Chorus
"I can see through the flames..."
8.
G||-----------------------------------------------------------------------------------------|
D||-----------------------------------------------------------------------------------------|
A||------------0-0-00-000----------------------------------0-0-00-000-----------------------|
C#|-0-0-00-000------------3-3-33-333-2-2-22-222-0-0-00-000------------3-3-33-333-7-7-77-777-|

"I can see through my tired eyes..."
9.
G||--------------------------------------------------------------------------------------------|
D||--------------------------------------------------------------------------------------------|
A||----------2-0-0-00-000--------------------------------2-0-0-00-000--------------------------|
C#|-0-0-00-00-------------3-3-33-333-2-2-22-222-0-0-00-00-------------3-3-33-333-777777-777777-|

Outro
"And there you were..."
10.
G||-----------------------------------------------------------|
D||-----------------------------------------------------------|
A||-0~----------------------------------------------------2~--|
C#|-------------------------------------------2~--3~--0~------|

"As the world..."
11. 
G||----------------------------------------------------------------------------------------------|
D||----------2-1----------1-2--------------------------------------------------------------------|
A||-0~-0-00~-----2~-2-22~-------------------4~-4-46~-6-6-0~-0-00~-0-0-2~-2-22~-2-2-------------2~|
C#|----------------------------0~-0-00~-0-0----------------------------------------2~--3~--0~----|

12.
G||-------------------|
D||-------------------|
A||-0~----------------|
C#|-------------------|

Pre-Chorus
"And as I see..."
13.
G||--------------------------------------------------|
D||--------------------------------------------------|
A||-000------------------------------------------000-|
C#|-----0~--00000x-00000x-0x---00000000-00000000-----|

Chorus
"I can see through the flames..."
14.
G||-----------------------------------------------------------------------------------------|
D||-----------------------------------------------------------------------------------------|
A||------------0-0-00-000----------------------------------0-0-00-000-----------------------|
C#|-0-0-00-000------------3-3-33-333-2-2-22-222-0-0-00-000------------3-3-33-333-7-7-77-777-|

"I can see through my tired eyes..."
15.
G||-----------------------------------------------------------------------------------------|
D||-----------------------------------------------------------------------------------------|
A||----------2-0-0-00-000--------------------------------2-0-0-00-000-----------------------|
C#|-0-0-00-00-------------3-3-33-333-2-2-22-222-0-0-00-00-------------3-3-33-333-7-7-77-777-|

16.
G||-----------------------------|
D||-----------------------------|
A||-----------------------------|
C#|-777777-777777-777777-777777-|

Outro
17.
G||-----------------------------------|
D||-----------------------------------|
A||-----------------------------------|
C#|-0~--------------------------------|


Please rate thanks!!


Lyrics:

Burning down
We can't stop it
We gotta get out
Start again
The memories are gone forever

Don't try
To turn this around on me
I'm the one that saved you
This was my home
This was my life
It's not always just about you

And as I heard
The sirens begin to chime
I can feel my heart begin to race

I can see through the flames
That the fire cleanses me
Mind and soul now the same
And my body guides the way

I threw you over my shoulder
With the angel
On my other
I'm not your hero
I'll never be
What you wanted
What you thought I would be

I can see through my tired eyes
My sickness controls me
Deep inside I know trust (I know trust)
Is the mother of deceit
(Is the mother of deceit)

And there you were
Six years old, ashes in your hair
You're not scared
You've seen so much pain in so few years
As the world 
Becomes a place where no one wants to stay
We remain
Silent until it's too late

And as I see
The planes take over the sky
I can feel it coming to the end



+++++++++++++++++++++++++++++++++
| Raileff                       |
| Underground__Dora@Hotmail.Com |
+++++++++++++++++++++++++++++++++
Suggest correction
Give kudos to tab author, rate the tab!
1 2 3 4 5
comments
print report bad tab
guest
You may want to rate the tab now too:
select rating
Wanna post a correction for this tab? Suggest correction