Oops, an error
Loading. Please wait.

A Great Fire Tab

version 1
version 1

Whole song

Interactive

12,713 views 1 this week
5 commentsread comments
1 2 3 4 5
excellent!
x 7
add to favorites
launch autoscroll
font size
0
reset
how to read this tab
guitar tuner
Tab Pro tools
  • play this tab
  • loop segment
  • change instrument
  • show fretboard
  • metronome
Autoscroll
slow
fast
+/-
esc
set tempo
stop
Contributor
Difficulty
Tuning
intermediate
C# G# C# F# A# D#
Tabbed by: Joshua Garcia (joshuag523@aol.com)

Tabs for the song: A Great Fire by Silverstein
Please rate and let me know if you have any corrections. Thank you.

*Updated on 8/5/09 - Finally had a chance to add the rhythm guitar. Enjoy!

Tuning: Drop C# (C# G# C# F# A# D#)


Intro
Guitar 1:
D#||----------------------------------------------------|
A#||----------------------------------------------------|
F#||----------------------------------------------------|
C#||-8880----------------------0------------------------| x3
G#||-8880----------------------0------------------------|
C#||-8880--0000000---0000000---0---0000000---0000000----|
           .......   .......   .   .......   .......

D#||----------------------------------------------------|
A#||----------------------------------------------------|
F#||----------------------------------------------------|
C#||-8880----------------------0-------------------888--|
G#||-8880----------------------0-------------------888--|
C#||-8880--0000000---0000000---0---00000000000000--888--|
           .......   .......   .   ..............

Guitar 2:
D#||--10-------|
A#||--10--x14--|
F#||--7--------| x4
C#||-----------|
G#||-----------|
C#||-----------|



Bridge
Guitar 1/2:
D#||----------------------------------------------------|
A#||----------------------------------------------------|
F#||----------------------------------------------------|
C#||-0-888-0--888-0---3-2-0---55-5---57-7---------------| x2
G#||-0-888-0--888-0---3-2-0---55-5---57-7---------------|
C#||-0-888-0--888-0---3-2-0---55-5---57-7----7-5-3------|


Guitar 2:
D#||---------|
A#||---------|
F#||---------|
C#||---------|
G#||---------|
C#||--7-5-3--|



Pre-Chorus
Guitar 1/2:
D#||----------------------------------------------------------------------|
A#||----------------------------------------------------------------------|
F#||--10------10------9-------9-------7-------7---------------------------|
C#||--x-------x-------x-------x-------x-------x--------7------------------| x2
G#||--8-------8-------7-------7-------5-------5--------7--------8--7--5---|
C#||----00000---00000---00000---00000---55555---55555--7-77777--8--7--5---|
        .....   .....   .....   .....   .....   .....    .....

D#||------------------------------------------------------------|
A#||------------------------------------------------------------|
F#||------------------------------------------------------------|
C#||-0----------------------0-----------------------------888---|
G#||-0----------------------0-----------------------------888---|
C#||-0--0000000---0000000---0---0000000---00000000000000--888---|
        .......   .......   .   .......   ..............

Guitar 2:
D#||--10--|
A#||--10--|
F#||--7---| x14
C#||------|
G#||------|
C#||------|



Chorus
Guitar 1:
D#||-----------------------------------------------------|
A#||---6-8-10-8-6---6-8-10-8-6-5-6-8-10-8-6-5-6-8-10-8-6-|
F#||-7------------7--------------------------------------|
C#||-----------------------------------------------------|
G#||-----------------------------------------------------|
C#||-----------------------------------------------------|


D#||-----------------------------------------------------|
A#||---5-6-8-6-5---5-6-8-6-5---5-6-8-6-5---5-6-8-6-5-----|
F#||-5-----------5-----------3-----------3---------------|
C#||-----------------------------------------------------| x2
G#||-----------------------------------------------------|
C#||-----------------------------------------------------|


Guitar 2:
D#||-----------------------------------------|
A#||-----------------------------------------|
F#||-----------------------------------------|
C#||-0-0000-0--8-8888-8--3-3333-3--2-2222-2--|
G#||-0-0000-0--8-8888-8--3-3333-3--2-2222-2--|
C#||-0-0000-0--8-8888-8--3-3333-3--2-2222-2--|


D#||-----------------------------------------|
A#||-----------------------------------------|
F#||-----------------------------------------|
C#||-0-0000-0--8-8888-8--3-3333-3--7-7777-7--|
G#||-0-0000-0--8-8888-8--3-3333-3--7-7777-7--|
C#||-0-0000-0--8-8888-8--3-3333-3--7-7777-7--|


D#||-----------|
A#||-----------|
F#||-9--10-12--|
C#||-x--x--x---|
G#||-7--8--10--|
C#||-----------|



Pre-Chorus
Guitar 1/2:
D#||----------------------------------------------------------------------|
A#||----------------------------------------------------------------------|
F#||--10------10------9-------9-------7-------7---------------------------|
C#||--x-------x-------x-------x-------x-------x--------7------------------| X2
G#||--8-------8-------7-------7-------5-------5--------7--------8--7--5---|
C#||----00000---00000---00000---00000---55555---55555--7-77777--8--7--5---|
        .....   .....   .....   .....   .....   .....    .....


Chorus
Guitar 1:
D#||-----------------------------------------------------|
A#||---6-8-10-8-6---6-8-10-8-6-5-6-8-10-8-6-5-6-8-10-8-6-|
F#||-7------------7--------------------------------------|
C#||-----------------------------------------------------|
G#||-----------------------------------------------------|
C#||-----------------------------------------------------|


D#||-----------------------------------------------------|
A#||---5-6-8-6-5---5-6-8-6-5---5-6-8-6-5---5-6-8-6-5-----|
F#||-5-----------5-----------3-----------3---------------|
C#||-----------------------------------------------------| x2
G#||-----------------------------------------------------|
C#||-----------------------------------------------------|


D#||-----------------------------------------------------------|
A#||---6-8-8/10-----6-8-8/10-11-10-----5-6-6/8-----5-6-6/8-6-5-|
F#||-7------------7------------------5-----------3-------------|
C#||-----------------------------------------------------------| x2
G#||-----------------------------------------------------------|
C#||-----------------------------------------------------------|


D#||--------------------|
A#||--8-6-8-10-8-10-13--|
F#||--------------------|
C#||--------------------|
G#||--------------------|
C#||--------------------|


Guitar 2:
D#||-----------------------------------------|
A#||-----------------------------------------|
F#||-----------------------------------------|
C#||-0-0000-0--8-8888-8--3-3333-3--2-2222-2--|
G#||-0-0000-0--8-8888-8--3-3333-3--2-2222-2--|
C#||-0-0000-0--8-8888-8--3-3333-3--2-2222-2--|


D#||-----------------------------------------|
A#||-----------------------------------------|
F#||-----------------------------------------| x2
C#||-0-0000-0--8-8888-8--3-3333-3--7-7777-7--|
G#||-0-0000-0--8-8888-8--3-3333-3--7-7777-7--|
C#||-0-0000-0--8-8888-8--3-3333-3--7-7777-7--|


D#||----------------|
A#||----------------|
F#||----------------|
C#||-7-777-7-7-7-8--|
G#||-7-777-7-7-7-8--|
C#||-7-777-7-7-7-8--|



Bridge
Guitar 2:
D#||------------------------------------------------------------------------|
A#||------------------------------------------------------------------------|
F#||---10------10-------10-------10-------10-------10-------10-------10-----|
C#||------10------10-------10-------10-------10-------10-------10-------10--|
G#||------------------------------------------------------------------------|
C#||-8-------8-------10-------10-------12-------12-------12-------12--------|


D#||---------------------------------------------------------------------|
A#||---------------------------------------------------------------------|
F#||---10------10-------10-------10-------9----10------------------------| x2
C#||------10------10-------10-------10----9----10----12----10----8-------|
G#||--------------------------------------7----8-----12----10----8-------|
C#||-8-------8-------10-------10---------------------12----10----8-(10)--|


Guitar 1:
D#||--------------------|
A#||--------------------|
F#||----------7--5--3---|
C#||-12\2--3--7--5--3---|
G#||-12\2--3--5--3--1---|
C#||-12\2--3------------|


D#||---------------------|
A#||---------------------|
F#||-------7--5--3-------|
C#||-2--3--7--5--3-------|
G#||-2--3--5--3--1----3--|
C#||-2--3----------------|



Pre-Chorus
Guitar 1:
D#||------------------------------------------------------------|
A#||------------------------------------------------------------|
F#||------------------------------------------------------------|
C#||-0----------------------0-----------------------------888---|
G#||-0----------------------0-----------------------------888---|
C#||-0--0000000---0000000---0---0000000---00000000000000--888---|
        .......   .......   .   .......   ..............

Guitar 2:
D#||--10--|
A#||--10--|
F#||--7---| x14
C#||------|
G#||------|
C#||------|



Chorus
Guitar 1:
D#||-----------------------------------------------------|
A#||---6-8-10-8-6---6-8-10-8-6-5-6-8-10-8-6-5-6-8-10-8-6-|
F#||-7------------7--------------------------------------|
C#||-----------------------------------------------------|
G#||-----------------------------------------------------|
C#||-----------------------------------------------------|


D#||-----------------------------------------------------|
A#||---5-6-8-6-5---5-6-8-6-5---5-6-8-6-5---5-6-8-6-5-----|
F#||-5-----------5-----------3-----------3---------------|
C#||-----------------------------------------------------| x2
G#||-----------------------------------------------------|
C#||-----------------------------------------------------|


D#||-----------------------------------------------------------|
A#||---6-8-8/10-----6-8-8/10-11-10-----5-6-6/8-----5-6-6/8-6-5-|
F#||-7------------7------------------5-----------3-------------|
C#||-----------------------------------------------------------| x2
G#||-----------------------------------------------------------|
C#||-----------------------------------------------------------|


D#||-------------------------13-12----10---|
A#||--8-6-8-10-8-10-13-11-10-------13------|
F#||---------------------------------------|
C#||---------------------------------------|
G#||---------------------------------------|
C#||---------------------------------------|


Guitar 2:
D#||-----------------------------------------|
A#||-----------------------------------------|
F#||-----------------------------------------|
C#||-0-0000-0--8-8888-8--3-3333-3--2-2222-2--|
G#||-0-0000-0--8-8888-8--3-3333-3--2-2222-2--|
C#||-0-0000-0--8-8888-8--3-3333-3--2-2222-2--|


D#||-----------------------------------------|
A#||-----------------------------------------|
F#||-----------------------------------------| x2
C#||-0-0000-0--8-8888-8--3-3333-3--7-7777-7--|
G#||-0-0000-0--8-8888-8--3-3333-3--7-7777-7--|
C#||-0-0000-0--8-8888-8--3-3333-3--7-7777-7--|


D#||-----------------------------|
A#||-----------------------------|
F#||-----------------------------|
C#||-7-7-7-7-7-7-7-7-7-7-7-7--0--|
G#||-7-7-7-7-7-7-7-7-7-7-7-7--0--|
C#||-7-7-7-7-7-7-7-7-7-7-7-7--0--|




Tablature Legend
----------------
 h   hammer-on
 p   pull-off
 b   bend
 pb  pre-bend
 r   release bend
 ~   hold / vibrato
 .   palm mute
 /   slide up
 \   slide down
 *   pinch harmonic
 '   natural harmonic
 x   mute note
 T   tap
comments
print report bad tab
5 comments total. Showing first comments.
0 reply
billysgottalent wrote on July 29 2009, 10:19 am

Shouldn't the 6th string be a C#? lol

0 reply
Joshua Garcia wrote on July 29 2009, 02:21 pm

C# 1/2 step up or a d# 1/2 step down are the same thing

+1 reply
r0ckth3d34n wrote on August 2 2009, 08:45 pm

It's mostly correct. The fact that the rhythm guitar is missing is sort of a bummer. But I'll add what I'm pretty sure the chorus chords are...

Db--------------------
Bb----------------------------
Gb----------------------------
Db-0~-8~-3~-2~-0~-8~-3~-7~----
Ab-0~-8~-3~-3~-0~-8~-3~-7~----
Db-0~-8~-3~-2~-0~-8~-3~-7~----

Then slide up to an A chord from the Ab when going in to the "piano solo" part.

The "piano solo" which is actually guitar.
Uses arpeggios, variants the A chord, B chord and I think the Db chord.

I want to post or [tab]
guest
You may want to rate the tab now too:
select rating
Please do not post tabs as comments. Select "correction" instead!