Oops, an error
Loading. Please wait.

A Great Fire Bass Tab

version 2
version 2

Whole song

Interactive

95 views 1 this week
no commentswrite comment
1 2 3 4 5
3 more votes to show rating
add to favorites
launch autoscroll
font size
0
reset
guitar tuner
Autoscroll
slow
fast
+/-
esc
set tempo
stop
Help us to improve Ultimate-Guitar.com Take our survey!
×
Author
Difficulty
Tuning
intermediate
C# G# C# F# A# D#
Title: A Great Fire
Artist: Silverstein
Album: A Shipwreck In The Sand
Words: Silverstein
Music: Silverstein
Copyright: Silverstein


Legend
L - tied note
x - dead note
h - hammer on/pull off
b - bend
s - slide
~ - vibrato
g - ghost note
> - accentuated note
t - trill
M - palm mute
. - staccato
P - popping (bass)
S - slapping (bass)
+ - tapping
W - wide vibrato
< - fade in
w - whammy bar
= - tremolo picking
v - brush up
^ - brush down
V - pick stroke up
n - pick stroke down


F#|----------------|----------------|----------------|----------------|
C#|----------------|----------------|----------------|----------------|
G#|----------------|----------------|----------------|----------------|
C#|----------------|----------------|----------------|----------------|


-------------|-------------|-------------|----------------------|
-------------|-------------|-------------|----------------------|
-------------|-------------|-------------|----------------------|
-------------|-------------|-------------|-----------8--8--8----|


----------------------------------------|
----------------------------------------|
----------------------------------------|
--0-----------------0--0--0--0--0--0----|


----------------------------------------------------|
----------------------------------------------------|
----------------------------------------------------|
--0-----------------0--0--0--0--0--0--0-------------|


----------------------------------------|
----------------------------------------|
----------------------------------------|
--0-----------------0--0--0--0--0--0----|


----------------------------------------|----------------------|
----------------------------------------|----------------------|
----------------------------------------|----------------------|
--0-----------------0--0--0--0--0--0----|--0--------8--8--8----|


----------------------------------------|
----------------------------------------|
----------------------------------------|
--0-----------------0--0--0--0--0--0----|


----------------------------------------------------|
----------------------------------------------------|
----------------------------------------------------|
--0-----------------0--0--0--0--0--0--0-------------|


----------------------------------------|
----------------------------------------|
----------------------------------------|
--0-----------------0--0--0--0--0--0----|


----------------------------------------|----------------------|
----------------------------------------|----------------------|
----------------------------------------|----------------------|
--0-----------------0--0--0--0--0--0----|--0--------8--8--8----|


----------------------------------------|
----------------------------------------|
----------------------------------------|
--0-----------------0--0--0--0--0--0----|


----------------------------------------------------|
----------------------------------------------------|
----------------------------------------------------|
--0-----------------0--0--0--0--0--0--0-------------|


----------------------------------------|
----------------------------------------|
----------------------------------------|
--0-----------------0--0--0--0--0--0----|


----------------------------------------|----------------------|
----------------------------------------|----------------------|
----------------------------------------|----------------------|
--0-----------------0--0--0--0--0--0----|--0--------8--8--8----|


----------------------------------------|
----------------------------------------|
----------------------------------------|
--0-----------------0--0--0--0--0--0----|


----------------------------------------------------|
----------------------------------------------------|
----------------------------------------------------|
--0-----------------0--0--0--0--0--0--0-------------|


----------------------------------------|
----------------------------------------|
----------------------------------------|
--0-----------------0--0--0--0--0--0----|


----------------------------------------|
----------------------------------------|
----------------------------------------|
--0--0--0--0--0--0--0--0--0--0--0--0----|


----------------------------------------|----------------------|
----------------------------------------|----------------------|
----------------------------------------|----------------------|
--0--0--0--0--0--0--8-----8-----8-------|--0--------8--8--8----|


----------------------|----------------------|----------------------|
----------------------|----------------------|----------------------|
----------------------|----------------------|----------------------|
--0--------8--8--8----|--0--------3--2--0----|-----5--5-----5-------|


----------------------|----------------|----------------------|
----------------------|----------------|----------------------|
----------------------|----------------|----------------------|
-----5--7-----7-------|-----7--5--3----|--0--------8--8--8----|


----------------------|----------------------|----------------------|
----------------------|----------------------|----------------------|
----------------------|----------------------|----------------------|
--0--------8--8--8----|--0--------3--2--0----|-----5--5-----5-------|


----------------------|----------------|----------------|----------------------|
----------------------|----------------|----------------|----------------------|
----------------------|----------------|----------------|--8-------------------|
-----5--7-----7-------|-----7--5--3----|----------------|-----0--0--0--0--0----|


----------------------|----------------------|----------------------|
----------------------|----------------------|----------------------|
--8-------------------|--7-------------------|--7-------------------|
-----0--0--0--0--0----|-----0--0--0--0--0----|-----0--0--0--0--0----|


----------------------|----------------------|----------------------|
----------------------|----------------------|----------------------|
--5-------------------|--5-------------------|--7-------------------|
-----5--5--5--5--5----|-----5--5--5--5--5----|-----7--7--7--7--7----|


----------------------------------------|----------------------|
----------------------------------------|----------------------|
----------------------------------------|--8-------------------|
--8-----8--8--7-----7--7--5-------------|-----0--0--0--0--0----|


----------------------|----------------------|----------------------|
----------------------|----------------------|----------------------|
--8-------------------|--7-------------------|--7-------------------|
-----0--0--0--0--0----|-----0--0--0--0--0----|-----0--0--0--0--0----|


----------------------|----------------------|----------------------|
----------------------|----------------------|----------------------|
--5-------------------|--5-------------------|--7-------------------|
-----5--5--5--5--5----|-----5--5--5--5--5----|-----7--7--7--7--7----|


----------------------------------------|
----------------------------------------|
----------------------------------------|
--8-----8--8--7-----7--7--5-------------|


----------------------------------------|
----------------------------------------|
----------------------------------------|
--0-----------------0--0--0--0--0--0----|


----------------------------------------------------|
----------------------------------------------------|
----------------------------------------------------|
--0-----------------0--0--0--0--0--0--0-------------|


----------------------------------------|
----------------------------------------|
----------------------------------------|
--0-----------------0--0--0--0--0--0----|


----------------------------------------|----------------------|
----------------------------------------|----------------------|
----------------------------------------|----------------------|
--0-----------------0--0--0--0--0--0----|--0--------8--8--8----|


----------------------|----------------------|----------------------|
----------------------|----------------------|----------------------|
----------------------|----------------------|----------------------|
--0--0-----0-----0----|--0--0-----0-----0----|--8--8-----8-----8----|


----------------------|----------------------|----------------------|
----------------------|----------------------|----------------------|
----------------------|----------------------|----------------------|
--8--8-----8-----8----|--3--3-----3-----3----|--3--3-----3-----3----|


----------------------|----------------------|----------------------|
----------------------|----------------------|----------------------|
----------------------|----------------------|----------------------|
--2--2-----2-----2----|--2--2-----2-----2----|--0--0-----0-----0----|


----------------------|----------------------|----------------------|
----------------------|----------------------|----------------------|
----------------------|----------------------|----------------------|
--0--0-----0-----0----|--8--8-----8-----8----|--8--8-----8-----8----|


----------------------|----------------------|----------------------|
----------------------|----------------------|----------------------|
----------------------|----------------------|----------------------|
--3--3-----3-----3----|--3--3-----3-----3----|--7--7-----7-----7----|


----------------------|----------------------|----------------------|
----------------------|----------------------|----------------------|
----------------------|--8-------------------|--8-------------------|
--7--7-----7-----7----|-----0--0--0--0--0----|-----0--0--0--0--0----|


----------------------|----------------------|----------------------|
----------------------|----------------------|----------------------|
--7-------------------|--7-------------------|--5-------------------|
-----0--0--0--0--0----|-----0--0--0--0--0----|-----5--5--5--5--5----|


----------------------|----------------------|
----------------------|----------------------|
--5-------------------|--7-------------------|
-----5--5--5--5--5----|-----7--7--7--7--7----|


----------------------------------------|----------------------|
----------------------------------------|----------------------|
----------------------------------------|--8-------------------|
--8-----8--8--7-----7--7--5-------------|-----0--0--0--0--0----|


----------------------|----------------------|----------------------|
----------------------|----------------------|----------------------|
--8-------------------|--7-------------------|--7-------------------|
-----0--0--0--0--0----|-----0--0--0--0--0----|-----0--0--0--0--0----|


----------------------|----------------------|----------------------|
----------------------|----------------------|----------------------|
--5-------------------|--5-------------------|--7-------------------|
-----5--5--5--5--5----|-----5--5--5--5--5----|-----7--7--7--7--7----|


----------------------------------------|----------------------|
----------------------------------------|----------------------|
----------------------------------------|----------------------|
--8-----8--8--7-----7--7--5-------------|--0--0-----0-----0----|


----------------------|----------------------|----------------------|
----------------------|----------------------|----------------------|
----------------------|----------------------|----------------------|
--0--0-----0-----0----|--8--8-----8-----8----|--8--8-----8-----8----|


----------------------|----------------------|----------------------|
----------------------|----------------------|----------------------|
----------------------|----------------------|----------------------|
--3--3-----3-----3----|--3--3-----3-----3----|--2--2-----2-----2----|


----------------------|----------------------|----------------------|
----------------------|----------------------|----------------------|
----------------------|----------------------|----------------------|
--2--2-----2-----2----|--0--0-----0-----0----|--0--0-----0-----0----|


----------------------|----------------------|----------------------|
----------------------|----------------------|----------------------|
----------------------|----------------------|----------------------|
--8--8-----8-----8----|--8--8-----8-----8----|--3--3-----3-----3----|


----------------------|----------------------|----------------------|
----------------------|----------------------|----------------------|
----------------------|----------------------|----------------------|
--3--3-----3-----3----|--7--7-----7-----7----|--7--7-----7-----7----|


----------------------|----------------------|----------------------|
----------------------|----------------------|----------------------|
----------------------|----------------------|----------------------|
--0--0-----0-----0----|--0--0-----0-----0----|--8--8-----8-----8----|


----------------------|----------------------|----------------------|
----------------------|----------------------|----------------------|
----------------------|----------------------|----------------------|
--8--8-----8-----8----|--3--3-----3-----3----|--3--3-----3-----3----|


----------------------|----------------------|----------------------|
----------------------|----------------------|----------------------|
----------------------|----------------------|----------------------|
--2--2-----2-----2----|--2--2-----2-----2----|--0--0-----0-----0----|


----------------------|----------------------|----------------------|
----------------------|----------------------|----------------------|
----------------------|----------------------|----------------------|
--0--0-----0-----0----|--8--8-----8-----8----|--8--8-----8-----8----|


----------------------|----------------------|----------------------|
----------------------|----------------------|----------------------|
----------------------|----------------------|----------------------|
--3--3-----3-----3----|--3--3-----3-----3----|--7--7-----7-----7----|


----------------------|----------------------|----------------------|-------|
----------------------|----------------------|----------------------|-------|
----------------------|----------------------|----------------------|-------|
--7--7-----7-----7----|--7--7-----7-----7----|--7--7-----7-----7----|--8L---|


-------|-------|-------|-------|-------|-------|-------|-------|-------|-------|
-------|-------|-------|-------|-------|-------|-------|-------|-------|-------|
-------|-------|-------|-------|-------|-------|-------|-------|-------|-------|
--8----|-------|-------|-------|-------|-------|-------|-------|-------|-------|


-------------|-------|-------|-------|-------|-------|-------------|-------|
-------------|-------|-------|-------|-------|-------|-------------|-------|
-------------|-------|-------|-------|-------|-------|-----7--8----|-------|
--------10s--|--2----|--3----|--0----|--10---|--8L---|--8----------|--10L--|


-------------|-------|-------|-------|-------------|-------|-------------|
-------------|-------|-------|-------|-------------|-------|-------------|
-----8--7----|-------|-------|--5----|--5--7--8----|-------|-----7--8----|
--10---------|--0----|--0----|-------|-------------|--8L---|--8----------|


-------|-------------|-------|-------|-------|-------|-------|-------|-------|
-------|-------------|-------|-------|-------|-------|-------|-------|-------|
-------|-----8--7----|-------|-------|-------|-------|-------|-------|-------|
--10L--|--10---------|--2----|--3----|--0----|--10---|--8L---|--8----|-------|


-------|----------------------------------------|
-------|----------------------------------------|
-------|----------------------------------------|
-------|--0-----------------0--0--0--0--0--0----|


----------------------------------------------------|
----------------------------------------------------|
----------------------------------------------------|
--0-----------------0--0--0--0--0--0--0-------------|


----------------------------------------|
----------------------------------------|
----------------------------------------|
--0-----------------0--0--0--0--0--0----|


----------------------------------------|----------------------|
----------------------------------------|----------------------|
----------------------------------------|----------------------|
--0-----------------0--0--0--0--0--0----|--0--------8--8--8----|


----------------------|----------------------|----------------------|
----------------------|----------------------|----------------------|
----------------------|----------------------|----------------------|
--0--0-----0-----0----|--0--0-----0-----0----|--8--8-----8-----8----|


----------------------|----------------------|----------------------|
----------------------|----------------------|----------------------|
----------------------|----------------------|----------------------|
--8--8-----8-----8----|--3--3-----3-----3----|--3--3-----3-----3----|


----------------------|----------------------|----------------------|
----------------------|----------------------|----------------------|
----------------------|----------------------|----------------------|
--2--2-----2-----2----|--2--2-----2-----2----|--0--0-----0-----0----|


----------------------|----------------------|----------------------|
----------------------|----------------------|----------------------|
----------------------|----------------------|----------------------|
--0--0-----0-----0----|--8--8-----8-----8----|--8--8-----8-----8----|


----------------------|----------------------|----------------------|
----------------------|----------------------|----------------------|
----------------------|----------------------|----------------------|
--3--3-----3-----3----|--3--3-----3-----3----|--7--7-----7-----7----|


----------------------|----------------------|----------------------|
----------------------|----------------------|----------------------|
----------------------|----------------------|----------------------|
--7--7-----7-----7----|--0--0-----0-----0----|--0--0-----0-----0----|


----------------------|----------------------|----------------------|
----------------------|----------------------|----------------------|
----------------------|----------------------|----------------------|
--8--8-----8-----8----|--8--8-----8-----8----|--3--3-----3-----3----|


----------------------|----------------------|----------------------|
----------------------|----------------------|----------------------|
----------------------|----------------------|----------------------|
--3--3-----3-----3----|--2--2-----2-----2----|--2--2-----2-----2----|


----------------------|----------------------|----------------------|
----------------------|----------------------|----------------------|
----------------------|----------------------|----------------------|
--0--0-----0-----0----|--0--0-----0-----0----|--8--8-----8-----8----|


----------------------|----------------------|----------------------|
----------------------|----------------------|----------------------|
----------------------|----------------------|----------------------|
--8--8-----8-----8----|--3--3-----3-----3----|--3--3-----3-----3----|


----------------------|----------------------|----------------------|
----------------------|----------------------|----------------------|
----------------------|----------------------|----------------------|
--7--7-----7-----7----|--7--7-----7-----7----|--7--7-----7-----7----|


----------------------|----------------------|----------------------|-------|
----------------------|----------------------|----------------------|-------|
----------------------|----------------------|----------------------|-------|
--7--7-----7-----7----|--7--7-----7-----7----|--7--7-----7-----7----|--0L---|


-------|-------|-------|-------|-------|-------|-------|-------|-------|-------|
-------|-------|-------|-------|-------|-------|-------|-------|-------|-------|
-------|-------|-------|-------|-------|-------|-------|-------|-------|-------|
--0L---|--0L---|--0L---|--0L---|--0L---|--0L---|--0----|-------|-------|-------|


-------||
-------||
-------||
-------||
Suggest correction
Give kudos to tab author, rate the tab!
1 2 3 4 5
comments
print report bad tab
guest
You may want to rate the tab now too:
select rating
Wanna post a correction for this tab? Suggest correction