Oops, an error
Loading. Please wait.

A Hero Loses Everyday Bass Tab

version 1
version 1

Whole song

Interactive

216 views 1 this week
no commentswrite comment
1 2 3 4 5
3 more votes to show rating
add to favorites
launch autoscroll
font size
0
reset
guitar tuner
Autoscroll
slow
fast
+/-
esc
set tempo
stop
Help us to improve Ultimate-Guitar.com Take our survey!
×
Author
Tuning
D A D G B E
++++++++++++++++++++++++++++++++++++++
| Silverstein- A Hero Loses Everyday |
++++++++++++++++++++++++++++++++++++++


"I'll be long gone..."


Tuning: Drop D (DADG)


Verse
"Hey! They keep asking me..."
1.
G|-------------------------------------------------|
D|-------------------------------------------------|
A|-------------------------------------------------|
D|-11-11-22-22-11-11-22-22-11-11-22-22-11-11-22-22-|

"There's no trying to explain..."
2.
G|---------------------------------------------------------------------------------------|
D|---------------------------------------------------------------------------------------|
A|---------------------------------------------------------------------------------------|--x2
D|-222222-2~--22-22-2-2-2-666666-6~--66-66-6-6-6-11-11-11-1x--------4~--4444444-44444444-|

"Hey! I've lost everything..."
3.
G|-------------------------------------------------|
D|-------------------------------------------------|
A|-------------------------------------------------|--x2
D|-11-11-22-22-11-11-22-22-11-11-22-22-11-11-22-22-|

"There's no trying to explain..."
4.
G|---------------------------------------------------------------------------------------|
D|---------------------------------------------------------------------------------------|
A|---------------------------------------------------------------------------------------|
D|-222222-2~--22-22-2-2-2-666666-6~--66-66-6-6-6-11-11-11-1x--------4~--4444444-44444444-|

Chorus
"Hey! When tomorrow brings..."
5.
G|----------------------------------------------------------------------------|
D|-----------------------------------------------------1----------------------|
A|---------2-2222222---------------------------2-222222-----------------------|--x2
D|-2-22222-----------4-444444-444444h6-2-22222-----------4-444444-444-4h6-4h6-|

Outro
6.
G|-----------------------------------------------------------------------------------------------|
D|-----------------------------------------------------------------------------------------------|
A|-----------------------------------------------------------------------------------------------|
D|-2x----------------66x--------222x--------66x--------2222x--------66x--------22222222-22222222-|

Bridge
"Karma is hard to change..."
7.
G|-------------------------------------------------------------------------|
D|-------------------------------------------------------------------------|
A|--------------------------------------------------2222-------------------|--x2
D|-66666666-66661111-22222222-22224444-66666666-6666-----22222222-22224444-|

Pre-Chorus
"Im coughing up more blood..."
8.
G|----------------------------------------------------------------|
D|----------------------------------------------------------------|
A|----------------------------------------------------------------|
D|-222222-2~--------666666-6~--------11-11-11-1x--------4~--------|

Chorus
"Hey! When tomorrow brings..."
9.
G|----------------------------------------------------------------------------|
D|-----------------------------------------------------1----------------------|
A|---------2-2222222---------------------------2-222222-----------------------|--x2
D|-2-22222-----------4-444444-444444h6-2-22222-----------4-444444-444-4h6-4h6-|

Outro
"Hey! I've lost everything!"
10.
G|-------------------------------------------------|
D|-------------------------------------------------|
A|-------------------------------------------------|
D|-11-11-22-22-11-11-22-22-11-11-22-22-11-11-22-22-|

"Hey! Its not that surprising..."
11.
G|---------------------------------------------------------------|
D|---------------------------------------------------------------|
A|---------------------------------------------------------------|
D|-11-11-22-22-11-11-22-22-111111-222222-111111-22x--222x--------|


Please rate thanks!!



Lyrics:

Hey!
I've lost everything.
Now I've gotta find a way out.

Hey!
They keep asking me where I was when it was burning
There's no trying to explain.
They'll lock me up again.
Throw away the key.

The protagonist became the villain they disdain in every way

Hey!
Nothing's left for me expect malady and hatred
No evidence was found
They'll let me go for now
At least 'til tomorrow

And Hey!
When tomorrow brings the morning sun again
I'll be long gone
Now
As I drive away and leave the past behind
I think I'm dying.

It's so pathetic
I hate you so much but I still miss you.
Karma is hard to change
When everything you do and say is awful
Remorse is hard to fake
When you only feel sorry for yourself

I'm coughing up more blood
It's filling up my lungs.
It's killing me.

Hey! 
I've lost everything
Now! 
I've succumbed to grace
Hey! 
It's not that surprising
A hero loses everyday 



+++++++++++++++++++++++++++++++++
| Raileff                       |
| Underground__Dora@Hotmail.Com |
+++++++++++++++++++++++++++++++++
Suggest correction
Give kudos to tab author, rate the tab!
1 2 3 4 5
comments
print report bad tab
guest
You may want to rate the tab now too:
select rating
Wanna post a correction for this tab? Suggest correction