Oops, an error
Loading. Please wait.

A Hero Loses Everyday Tab

version 1
version 1

Whole song

Interactive

4,402 views 1 this week
2 commentsread comments
1 2 3 4 5
1 last vote to show rating
add to favorites
launch autoscroll
font size
0
reset
how to read this tab
guitar tuner
Autoscroll
slow
fast
+/-
esc
set tempo
stop
Help us to improve Ultimate-Guitar.com Take our survey!
×
Author
Difficulty
Tuning
intermediate
D A D G B E
About this tab version
Re-tabbed entire song, changed tunings. Was this info helpful? Yes No
Tabbed by: Joshua Garcia (joshuag523@aol.com)

Tabs for the song: A Hero Loses Everyday by Silverstein
Please rate and let me know if you have any corrections. Thank you.


Tuning: Drop C# (C# G# C# F# A# D#)


[Intro / Verse]
Guitar 1/2:
D#||----------------------------------------------------------|
A#||----------------------------------------------------------|
F#||----------------5-5----5-5--------------------------------|
C#||--5-5----5-5----3-3----3-3----5-5----5-5----7-7----7-7-7--| x4
G#||--2-2----2-2----3-3----3-3----2-2----2-2----3-3----3-3-3--|
C#||--2-2----2-2----3-3----3-3----2-2----2-2----3-3----3-3-3--|



[Pre-Chorus]
Guitar 1:
D#||------------------------------------------------------------------|
A#||------------------------------------------------------------------|
F#||--------------5~------5---4-------------------------10---9--------|
C#||--------------3~--------------5-------------7~---------------10\--|
G#||--------------3~----------------------------7~--------------------|
C#||--3-3-3-3-3-3-3~----------------7-7-7-7-7-7-7~--------------------|
      . . . . . .                   . . . . . .

D#||------------------------------------------------------------------------|
A#||------------------------------------------------------------------------|
F#||--5-5----4-4----5-5----4----4h5p4---------------------------------------|
C#||--2-2----2-2----2-2----2----------5--5---5-5---5-5-5-5---5-5---5-5-5p0--| x2
G#||--2-2----2-2----2-2----2-------------5---5-5---5-5-5-5---5-5---5-5-5p0--|
C#||--2-2----2-2----2-2----2-------------5---5-5---5-5-5-5---5-5---5-5-5p0--|


Guitar 2:
D#||------------------------------3-------------------------3------|
A#||----------------------5---3-------------------------3----------|
F#||--------------5~-------------------------------------------5\--|
C#||--------------3~----------------------------7~-----------------|
G#||--------------3~----------------------------7~-----------------|
C#||--3-3-3-3-3-3-3~----------------7-7-7-7-7-7-7~-----------------|
      . . . . . .                   . . . . . .

D#||----------------------------------3-------------------------------------|
A#||----------------------------3h5p3---------------------------------------|
F#||--5-5----4-4----5-5----4------------------------------------------------|
C#||--2-2----2-2----2-2----2-------------5---5-5---5-5-5-5---5-5---5-5-5p0--| x2
G#||--2-2----2-2----2-2----2-------------5---5-5---5-5-5-5---5-5---5-5-5p0--|
C#||--2-2----2-2----2-2----2-------------5---5-5---5-5-5-5---5-5---5-5-5p0--|



[Verse]
Guitar 1/2:
D#||----------------------------------------------------------|
A#||----------------------------------------------------------|
F#||----------------5-5----5-5--------------------------------|
C#||--5-5----5-5----3-3----3-3----5-5----5-5----7-7----7-7-7--| x4
G#||--2-2----2-2----3-3----3-3----2-2----2-2----3-3----3-3-3--|
C#||--2-2----2-2----3-3----3-3----2-2----2-2----3-3----3-3-3--|



[Pre-Chorus]
Guitar 1:
D#||------------------------------------------------------------------|
A#||------------------------------------------------------------------|
F#||--------------5~------5---4-------------------------10---9--------|
C#||--------------3~--------------5-------------7~---------------10\--|
G#||--------------3~----------------------------7~--------------------|
C#||--3-3-3-3-3-3-3~----------------7-7-7-7-7-7-7~--------------------|
      . . . . . .                   . . . . . .

D#||------------------------------------------------------------------------|
A#||------------------------------------------------------------------------|
F#||--5-5----4-4----5-5----4----4h5p4---------------------------------------|
C#||--2-2----2-2----2-2----2----------5--5---5-5---5-5-5-5---5-5---5-5-5p0--|
G#||--2-2----2-2----2-2----2-------------5---5-5---5-5-5-5---5-5---5-5-5p0--|
C#||--2-2----2-2----2-2----2-------------5---5-5---5-5-5-5---5-5---5-5-5p0--|


Guitar 2:
D#||------------------------------3-------------------------3------|
A#||----------------------5---3-------------------------3----------|
F#||--------------5~-------------------------------------------5\--|
C#||--------------3~----------------------------7~-----------------|
G#||--------------3~----------------------------7~-----------------|
C#||--3-3-3-3-3-3-3~----------------7-7-7-7-7-7-7~-----------------|
      . . . . . .                   . . . . . .

D#||----------------------------------3--------------------------------|
A#||----------------------------3h5p3----------------------------------|
F#||--5-5----4-4----5-5----4-------------------------------------------|
C#||--2-2----2-2----2-2----2-------------5---5-5---5-5-5-5-------------|
G#||--2-2----2-2----2-2----2-------------5---5-5---5-5-5-5-\\pick-\\---|
C#||--2-2----2-2----2-2----2-------------5---5-5---5-5-5-5--\\slide\\--|



[Chorus]
Guitar 1:
D#||--3---3----------------------------|--3---3----------------------------|
A#||-----------------------------------|--------------------------------3--|
F#||--------4-4-5-5-7-7-5-5-4-4-5-5-0--|--------4-4-5-5-7-7-5-5-4-4-5-4----|
C#||-----------------------------------|-----------------------------------|
G#||-----------------------------------|-----------------------------------|
C#||-----------------------------------|-----------------------------------|


D#||--3---3----------------------------|--3---3----------------------------|
A#||-----------------------------------|-----------------------------------|
F#||--------4-4-5-5-7-7-5-5-4-4-5-5-0--|--------4-4-5-5-7-7-5-5-4-4-5p4h5--|
C#||-----------------------------------|-----------------------------------|
G#||-----------------------------------|-----------------------------------|
C#||-----------------------------------|-----------------------------------|


D#||--3---3----------------------------|--3---3----------------------------|
A#||-----------------------------------|--------------------------------3--|
F#||--------4-4-5-5-7-7-5-5-4-4-5-5-0--|--------4-4-5-5-7-7-5-5-4-4-5-4----|
C#||-----------------------------------|-----------------------------------|
G#||-----------------------------------|-----------------------------------|
C#||-----------------------------------|-----------------------------------|


D#||--3---3----------------------------|--3---3------------------------------|
A#||-----------------------------------|-------------------------------------|
F#||--------4-4-5-5-7-7-5-5-4-4-5-5-0--|--------4-4-5-5-7-7-5-5-4-4-5p4h5p4--|
C#||-----------------------------------|-------------------------------------|
G#||-----------------------------------|-------------------------------------|
C#||-----------------------------------|-------------------------------------|


Guitar 2:
D#||-------------------------------------------------------------------|
A#||-------------------------------------------------------------------|
F#||-------------------------------------------------------------------|
C#||--3---3---3-3-3-5---5-5---5-5-5-5---5-5---5-5-5-5---5-5---5-5-5-7--|
G#||--3---3---3-3-3-3---3-3---3-3-3-5---5-5---5-5-5-5---5-5---5-5-5-7--|
C#||--3---3---3-3-3-5---5-5---5-5-5-5---5-5---5-5-5-5---5-5---5-5-5-7--|


D#||-------------------------------------------------------------------|
A#||-------------------------------------------------------------------|
F#||-------------------------------------------------------------------|
C#||--3---3---3-3-3-5---5-5---5-5-5-5---5-5---5-5-5-5---5-5---7-7-7-5--| x2
G#||--3---3---3-3-3-3---3-3---3-3-3-5---5-5---5-5-5-5---5-5---7-7-7-5--|
C#||--3---3---3-3-3-5---5-5---5-5-5-5---5-5---5-5-5-5---5-5---7-7-7-5--|


D#||------|
A#||------|
F#||------|
C#||--3\--|
G#||--3\--|
C#||--3\--|



[Interlude]
Guitar 1:
D#||--3-----3-----3-----3-----3-----3-0-----0-----0-----0-----0-----0--|
A#||----3-----3-----3-----3-----3-------0-----0-----0-----0-----0------|
F#||------5-----5-----5-----5-----5-------5-----5-----5-----5-----5----|
C#||-------------------------------------------------------------------| x4
G#||-------------------------------------------------------------------|
C#||-------------------------------------------------------------------|
      . . . . . . . . . . . . . . . . . . . . . . . . . . . . . . . .


Guitar 2:
D#||-------------------------------------------|-----------------------------------------|
A#||-------------------------------------------|-----------------------------------------|
F#||-------------------------------------------|-----------------------------------------|
C#||-------------------------------------------|--7-7-----------------------------2-2-3--|
G#||-------------------------------------------|--7-7-----------------------------2-2-3--|
C#||-------------------------------------------|--7-7-----------------------------2-2-3--|


D#||-------------------------------------------|-----------------------------------------|
A#||-------------------------------------------|-----------------------------------------|
F#||-------------------------------------------|-----------------------------------------|
C#||--7-7-----------------------------2-2-2-3--|--7-7-----------------------------2-2-2--|
G#||--7-7-----------------------------2-2-2-3--|--7-7-----------------------------2-2-2--|
C#||--7-7-----------------------------2-2-2-3--|--7-7-----------------------------2-2-2--|
                                                                                  . . .

D#||-----------------------------|
A#||-----------------------------|
F#||-----------------------------|
C#||--3-3-3-3-3-3-3-3-3-3-3-3-3--|
G#||--3-3-3-3-3-3-3-3-3-3-3-3-3--|
C#||--3-3-3-3-3-3-3-3-3-3-3-3-3--|
      . . . . . . .



[Bridge]
Guitar 1:
D#||--3-----3-----3-----3-----3-----3-0-----0-----0-----0-----0-----0--|
A#||----3-----3-----3-----3-----3-------0-----0-----0-----0-----0------|
F#||------5-----5-----5-----5-----5-------5-----5-----5-----5-----5----|
C#||-------------------------------------------------------------------|
G#||-------------------------------------------------------------------|
C#||-------------------------------------------------------------------|


D#||--3-----3-----3-----3-----3-----3-0-----0-----0-----0-----0-----0--|
A#||----3-----3-----3-----3-----3-------0-----0-----0-----0-----0------|
F#||------5-----5-----5-----5-----5-------5-----5-----5-----5-----5----|
C#||-------------------------------------------------------------------|
G#||-------------------------------------------------------------------|
C#||-------------------------------------------------------------------|


D#||--3-----------3-----3-----3-----3-0-----0-----0-----0-----0-----0--|
A#||----3---3-3-----3-----3-----3-------0-----0-----0-----0-----0------|
F#||------5-----5-----5-----5-----5-------5-----5-----5-----5-----5----|
C#||-------------------------------------------------------------------|
G#||-------------------------------------------------------------------|
C#||-------------------------------------------------------------------|
      . . . .


D#||--3-----3-----3-----3-----3-----3-0-----0-----0-----0-----0-----0--|
A#||----3-----3-----3-----3-----3-------0-----0-----0-----0-----0------|
F#||------5-----5-----5-----5-----5-------5-----5-----5-----5-----5----|
C#||-------------------------------------------------------------------|
G#||-------------------------------------------------------------------|
C#||-------------------------------------------------------------------|


Guitar 2:
D#||-------------------------------------------------------------------|
A#||-------------------------------------------------------------------|
F#||-------------------------------------------------------------------|
C#||--7-7-7-7-7-7-7-7-7-7-7-7-2-2-2-2-3-3-3-3-3-3-3-3-3-3-3-3-5-5-5-5--|
G#||--7-7-7-7-7-7-7-7-7-7-7-7-2-2-2-2-3-3-3-3-3-3-3-3-3-3-3-3-5-5-5-5--|
C#||--7-7-7-7-7-7-7-7-7-7-7-7-2-2-2-2-3-3-3-3-3-3-3-3-3-3-3-3-5-5-5-5--|


D#||-------------------------------------------------------------------|
A#||-------------------------------------------------------------------|
F#||--------------------------5-5-5-5----------------------------------|
C#||--7-7-7-7-7-7-7-7-7-7-7-7-5-5-5-5-3-3-3-3-3-3-3-3-3-3-3-3-5-5-5-5--|
G#||--7-7-7-7-7-7-7-7-7-7-7-7-3-3-3-3-3-3-3-3-3-3-3-3-3-3-3-3-5-5-5-5--|
C#||--7-7-7-7-7-7-7-7-7-7-7-7---------3-3-3-3-3-3-3-3-3-3-3-3-5-5-5-5--|


D#||-------------------------------------------------------------------|
A#||-------------------------------------------------------------------|
F#||-------------------------------------------------------------------|
C#||--7-7-7-7-7-7-7-7-7-7-7-7-2-2-2-2-3-3-3-3-3-3-3-3-3-3-3-3-5-5-5-5--|
G#||--7-7-7-7-7-7-7-7-7-7-7-7-2-2-2-2-3-3-3-3-3-3-3-3-3-3-3-3-5-5-5-5--|
C#||--7-7-7-7-7-7-7-7-7-7-7-7-2-2-2-2-3-3-3-3-3-3-3-3-3-3-3-3-5-5-5-5--|
      . . . .

D#||-------------------------------------------------------------------|
A#||-------------------------------------------------------------------|
F#||--------------------------5-5-5-5----------------------------------|
C#||--7-7-7-7-7-7-7-7-7-7-7-7-5-5-5-5-3-3-3-3-3-3-3-3-3-3-3-3-5-5-5-5--|
G#||--7-7-7-7-7-7-7-7-7-7-7-7-3-3-3-3-3-3-3-3-3-3-3-3-3-3-3-3-5-5-5-5--|
C#||--7-7-7-7-7-7-7-7-7-7-7-7---------3-3-3-3-3-3-3-3-3-3-3-3-5-5-5-5--|



[Pre-Chorus]
Guitar 1:
D#||------------------------------------------------------------------|
A#||------------------------------------------------------------------|
F#||--------------5~------5---4-------------------------10---9--------|
C#||--------------3~--------------5-------------7~---------------10\--|
G#||--------------3~----------------------------7~--------------------|
C#||--3-3-3-3-3-3-3~----------------7-7-7-7-7-7-7~--------------------|
      . . . . . .                   . . . . . .

D#||---------------------------------------------------------|
A#||---------------------------------------------------------|
F#||--5-5----4-4----5-5----4----4h5p4------------------------|
C#||--2-2----2-2----2-2----2----------5--5~------------------|
G#||--2-2----2-2----2-2----2-------------5~------\\pick-\\---|
C#||--2-2----2-2----2-2----2-------------5~-------\\slide\\--|


Guitar 2:
D#||------------------------------3-------------------------3------|
A#||----------------------5---3-------------------------3----------|
F#||--------------5~-------------------------------------------5\--|
C#||--------------3~----------------------------7~-----------------|
G#||--------------3~----------------------------7~-----------------|
C#||--3-3-3-3-3-3-3~----------------7-7-7-7-7-7-7~-----------------|
      . . . . . .                   . . . . . .

D#||----------------------------------3----------------------|
A#||----------------------------3h5p3------------------------|
F#||--5-5----4-4----5-5----4---------------------------------|
C#||--2-2----2-2----2-2----2-------------5~------------------|
G#||--2-2----2-2----2-2----2-------------5~------\\pick-\\---|
C#||--2-2----2-2----2-2----2-------------5~-------\\slide\\--|



[Chorus]
Guitar 1:
D#||--3---3----------------------------|--3---3----------------------------|
A#||-----------------------------------|--------------------------------3--|
F#||--------4-4-5-5-7-7-5-5-4-4-5-5-0--|--------4-4-5-5-7-7-5-5-4-4-5-4----|
C#||-----------------------------------|-----------------------------------|
G#||-----------------------------------|-----------------------------------|
C#||-----------------------------------|-----------------------------------|


D#||--3---3----------------------------|--3---3----------------------------|
A#||-----------------------------------|-----------------------------------|
F#||--------4-4-5-5-7-7-5-5-4-4-5-5-0--|--------4-4-5-5-7-7-5-5-4-4-5p4h5--|
C#||-----------------------------------|-----------------------------------|
G#||-----------------------------------|-----------------------------------|
C#||-----------------------------------|-----------------------------------|


D#||--3---3----------------------------|--3---3----------------------------|
A#||-----------------------------------|--------------------------------3--|
F#||--------4-4-5-5-7-7-5-5-4-4-5-5-0--|--------4-4-5-5-7-7-5-5-4-4-5-4----|
C#||-----------------------------------|-----------------------------------|
G#||-----------------------------------|-----------------------------------|
C#||-----------------------------------|-----------------------------------|


D#||--3---3----------------------------|--3---3------------------------------|
A#||-----------------------------------|-------------------------------------|
F#||--------4-4-5-5-7-7-5-5-4-4-5-5-0--|--------4-4-5-5-7-7-5-5-4-4-5p4h5p4--|
C#||-----------------------------------|-------------------------------------|
G#||-----------------------------------|-------------------------------------|
C#||-----------------------------------|-------------------------------------|


Guitar 2:
D#||-------------------------------------------------------------------|
A#||-------------------------------------------------------------------|
F#||-------------------------------------------------------------------|
C#||--3---3---3-3-3-5---5-5---5-5-5-5---5-5---5-5-5-5---5-5---5-5-5-7--|
G#||--3---3---3-3-3-3---3-3---3-3-3-5---5-5---5-5-5-5---5-5---5-5-5-7--|
C#||--3---3---3-3-3-5---5-5---5-5-5-5---5-5---5-5-5-5---5-5---5-5-5-7--|


D#||-------------------------------------------------------------------|
A#||-------------------------------------------------------------------|
F#||-------------------------------------------------------------------|
C#||--3---3---3-3-3-5---5-5---5-5-5-5---5-5---5-5-5-5---5-5---7-7-7-5--| x2
G#||--3---3---3-3-3-3---3-3---3-3-3-5---5-5---5-5-5-5---5-5---7-7-7-5--|
C#||--3---3---3-3-3-5---5-5---5-5-5-5---5-5---5-5-5-5---5-5---7-7-7-5--|



[Outro]
Guitar 1/2:
D#||----------------------------------------------------------|
A#||----------------------------------------------------------|
F#||----------------5-5----5-5--------------------------------|
C#||--5-5----5-5----3-3----3-3----5-5----5-5----7-7----7-7-7--| x2
G#||--2-2----2-2----3-3----3-3----2-2----2-2----3-3----3-3-3--|
C#||--2-2----2-2----3-3----3-3----2-2----2-2----3-3----3-3-3--|


Guitar 1:
D#||--3-----3-----0-----0-----3-----3-----0-----0------|
A#||----3-----3-----0-----0-----3-----3-----0-----0----|
F#||------5-----5-----5-----5-----5-----5-----5-----5--|
C#||---------------------------------------------------|
G#||---------------------------------------------------|
C#||---------------------------------------------------|
      . . . . . . . . . . . . . . . . . . . . . . . .


D#||--3-----3-----0-----0-----3-----3-----0-----0------|
A#||----3-----3-----0-----0-----3-----3-----0-----0----|
F#||------5-----5-----5-----5-----5-----5-----------5--|
C#||---------------------------------------------------|
G#||---------------------------------------------------|
C#||---------------------------------------------------|
      . . . . . . . . . . . . . . . . . . . .   . . .


Guitar 2:
D#||----------------------------------------------------------|
A#||----------------------------------------------------------|
F#||----------------5-5----5-5--------------------------------|
C#||--5-5----5-5----3-3----3-3----5-5----5-5----7-7----7-7-7--|
G#||--2-2----2-2----3-3----3-3----2-2----2-2----3-3----3-3-3--|
C#||--2-2----2-2----3-3----3-3----2-2----2-2----3-3----3-3-3--|

D#||----------------------------------------------------|
A#||----------------------------------------------------|
F#||--------------5-5-5-5-5-5---------------------------|
C#||--5-5-5-5-5-5-3-3-3-3-3-3-5-5-5-5-5-5-7-7----7-7-7--|
G#||--2-2-2-2-2-2-3-3-3-3-3-3-2-2-2-2-2-2-3-3----3-3-3--|
C#||--2-2-2-2-2-2-3-3-3-3-3-3-2-2-2-2-2-2-3-3----3-3-3--|





*****************************
-Tablature Legend-

 h   hammer-on
 p   pull-off
 b   bend
 pb  pre-bend
 r   release bend
 ~   hold / vibrato
 .   palm mute
 /   slide up
 \   slide down
 *   pinch harmonic
 '   natural harmonic
 x   mute note
 T   tap

*****************************
Suggest correction
Give kudos to tab author, rate the tab!
1 2 3 4 5
comments
print report bad tab
2 comments total.
0 reply
guitarmack 10 Aug 23, 2009 06:32 PM

this whole album is in drom C# but other than that it sounds good

0 reply
Joshua Garcia 5,073 Sep 03, 2009 01:28 AM

Oh well, same thing just slided down a note.
I might fix that later.

guest
You may want to rate the tab now too:
select rating
Wanna post a correction for this tab? Suggest correction