Oops, an error
Loading. Please wait.

A Hero Loses Everyday Tab

version 1
version 1

Whole song

Interactive

4,347 views 3 this week
2 commentsread comments
1 2 3 4 5
excellent!
x 2
add to favorites
launch autoscroll
font size
0
reset
how to read this tab
guitar tuner
Tab Pro tools
  • play this tab
  • loop segment
  • change instrument
  • show fretboard
  • metronome
Autoscroll
slow
fast
+/-
esc
set tempo
stop
Contributor
Difficulty
Tuning
intermediate
D A D G B E
Tabbed by: Joshua Garcia (joshuag523@aol.com)

Tabs For the song: A Hero Loses Everyday by Silverstein
Please rate and let me know if you have any corrections. Thank you.


The proper tuning for this tab is in Drop C#, but this is how to play it in 
Drop D. deluge_nl took the time to re-tab my tab in Drop C#, so check 
Version 2 for that tab.


Tuning: Drop D (E B G D A D)


Intro
Guitar 1/2:
E||----------------------------------|
B||----------------------------------|
G||-33--33--44--44--33--33--44--444--|
D||-11--11--22--22--11--11--22--222--| x4
A||-11--11--22--22--11--11--22--222--|
D||-11--11--22--22--11--11--22--222--|



Pre-Chorus
Guitar 1/2:
E||--------------------------------------------|--------------------------------------------|
B||--------------------------------------------|--------------------------------------------|
G||----------4--3---------------9--8-----------|-44--33--44--3---3h4p3----------------------|
D||-------2--------4---------6--------9--------|-11--11--11--1--------4---4-44-4444-44-444--| x2
A||-------2------------------6-----------------|-11--11--11--1------------4-44-4444-44-444--|
D||-2222222------------6666666-----------------|-11--11--11--1------------4-44-4444-44-444--|
    ......             ......


Verse
Guitar 1/2:
E||----------------------------------|
B||----------------------------------|
G||-33--33--44--44--33--33--44--444--|
D||-11--11--22--22--11--11--22--222--| x4
A||-11--11--22--22--11--11--22--222--|
D||-11--11--22--22--11--11--22--222--|



Pre-Chorus
Guitar 1/2:
E||--------------------------------------------|---------------------------------------------|
B||--------------------------------------------|---------------------------------------------|
G||----------4--3---------------9--8-----------|-44--33--44--3---3h4p3-----------------------|
D||-------2--------4---------6--------9--------|-11--11--11--1--------4---4-44-444--pick-----|
A||-------2------------------6-----------------|-11--11--11--1------------4-44-444----slide--|
D||-2222222------------6666666-----------------|-11--11--11--1------------4-44-444-----------|
    ......             ......



Chorus
Guitar 1:
E||--2~--2-----------------------------------|--2~--2--------------------------------|
B||------------------------------------------|---------------------------------------|
G||---------3-3-4-4/-6-6-4-4-3-3-4-3h4-------|---------3-3-4-4/-6-6-4-4-3-3-4-3-4-3--|
D||--------------------------------------x3--|---------------------------------------| x2
A||------------------------------------------|---------------------------------------|
D||------------------------------------------|---------------------------------------|


Guitar 2:
E||-----------------------------------------|------------------------------------------|
B||-----------------------------------------|------------------------------------------|
G||------------4-44-444---------------------|------------4-44-444----------------------|
D||--2-22-222--4-44-444--4-44-4444-44-4446--|--2-22-222--4-44-444--4-44-4444-44-666-4--| x2
A||--2-22-222--2-22-222--4-44-4444-44-4446--|--2-22-222--2-22-222--4-44-4444-44-666-4--|
D||--2-22-222------------4-44-4444-44-4446--|--2-22-222------------4-44-4444-44-666-4--|


E||------|
B||------|
G||------|
D||--2\--|
A||--2\--|
D||--2\--|



Bridge
Guitar 1:
E||--2-----2-----2-----2-----2-----2----------------------------------|
B||----2-----2-----2-----2-----2-----4-----4-----4-----4-----4-----4--|
G||------4-----4-----4-----4-----4-----3-4---3-4---3-4---3-4---3-4----|
D||-------------------------------------------------------------------| x4
A||-------------------------------------------------------------------|
D||-------------------------------------------------------------------|
     . . . . . . . . . . . . . . . . . . . . . . . . . . . . . . . .


Guitar 2:
E||-------------------------------------------------|
B||-------------------------------------------------|
G||-------------------------------------------------|
D||-66----222----66----1112----66----------222222---|
A||-66----222----66----1112----66-------222222222---|
D||-66----222----66----1112----66----222222222222---|
                                     ......


Verse
Guitar 1:

E||--2-----2-----2-----2-----2----------------------------------------|
B||----2-----2-----2-----2-----2-----4-----4-----4-----4-----4-----4--|
G||------4-----4-----4-----4-----4-----3-4---3-4---3-4---3-4---3-4----|
D||-------------------------------------------------------------------|
A||-------------------------------------------------------------------|
D||-------------------------------------------------------------------|

E||--2-----2-----2-----2-----2----------------------------------|
B||----2-----2-----2-----2-----2-----4-----4-----4-----4-----4--|
G||------4-----4-----4-----4-----4-----3-4---3-4---3-4---3-4----|
D||-------------------------------------------------------------|
A||-------------------------------------------------------------|
D||-------------------------------------------------------------|

E||--2--------|
B||----2---2--|
G||------4----|
D||-----------|
A||-----------|
D||-----------|
     . . . .

E||--2-----2-----2-----2----------------------------------------|
B||----2-----2-----2-----2-----4-----4-----4-----4-----4-----4--|
G||------4-----4-----4-----4-----3-4---3-4---3-4---3-4---3-4----|
D||-------------------------------------------------------------|
A||-------------------------------------------------------------|
D||-------------------------------------------------------------|


E||--2-----2-----2-----2-----2----------------------------------|
B||----2-----2-----2-----2-----2-----4-----4-----4-----4-----4--|
G||------4-----4-----4-----4-----4-----3-4---3-4---3-4---3-4----|
D||-------------------------------------------------------------|
A||-------------------------------------------------------------|
D||-------------------------------------------------------------|


Guitar 2:
E||-------------------------------------------------------------------|
B||-------------------------------------------------------------------|
G||-------------------------------------------------------------------| x2
D||-66666666666611112222222222224444666666666666-9--222222222224444---|
A||-66666666666611112222222222224444666666666666-9--222222222224444---|
D||-66666666666611112222222222224444666666666666-9--222222222224444---|


Pre-Chorus
Guitar 1/2:
E||--------------------------------------------|----------------------------------------|
B||--------------------------------------------|----------------------------------------|
G||----------4--3---------------9--8-----------|-44--33--44--3---3h4p3------------------|
D||-------2--------4---------6--------9--------|-11--11--11--1--------4---4~---pick-----|
A||-------2------------------6-----------------|-11--11--11--1------------4~-----slide--|
D||-2222222------------6666666-----------------|-11--11--11--1------------4~------------|
    ......             ......



Chorus
Guitar 1:
E||--2~--2-----------------------------------|--2~--2--------------------------------|
B||------------------------------------------|---------------------------------------|
G||---------3-3-4-4/-6-6-4-4-3-3-4-3h4-------|---------3-3-4-4/-6-6-4-4-3-3-4-3-4-3--|
D||--------------------------------------x3--|---------------------------------------| x2
A||------------------------------------------|---------------------------------------|
D||------------------------------------------|---------------------------------------|


Guitar 2:
E||-----------------------------------------|------------------------------------------|
B||-----------------------------------------|------------------------------------------|
G||------------4-44-444---------------------|------------4-44-444----------------------|
D||--2-22-222--4-44-444--4-44-4444-44-4446--|--2-22-222--4-44-444--4-44-4444-44-666-4--| x2
A||--2-22-222--2-22-222--4-44-4444-44-4446--|--2-22-222--2-22-222--4-44-4444-44-666-4--|
D||--2-22-222------------4-44-4444-44-4446--|--2-22-222------------4-44-4444-44-666-4--|



Outro
Guitar 1:
E||--2-----2-------------------2-----2-------------------|
B||----2-----2----4-----4--------2-----2----4-----4------|
G||------4-----4----3-4---3-4------4-----4----3-4---3-4--|
D||------------------------------------------------------|
A||------------------------------------------------------|
D||------------------------------------------------------|
     . . . . . .  . . . . . .  . . . . . .  . . . . . .

E||--2-----2-------------------2-----2--------------|
B||----2-----2----4-----4--------2-----2------------|
G||------4-----4----3-4---3-4------4-----4--44-334--|
D||-------------------------------------------------|
A||-------------------------------------------------|
D||-------------------------------------------------|
     . . . . . .  . . . . . .  . . . . . .


Guitar 2:
E||--------------------------------------|----------------------------|
B||--------------------------------------|----------------------------|
G||-33--33--44--44--33--33--44--444------|--33333344444433333344-444--|
D||-11--11--22--22--11--11--22--222--x3--|--11111122222211111122-222--|
A||-11--11--22--22--11--11--22--222------|--11111122222211111122-222--|
D||-11--11--22--22--11--11--22--222------|--11111122222211111122-222--|




Tablature Legend
----------------
 h   hammer-on
 p   pull-off
 b   bend
 pb  pre-bend
 r   release bend
 ~   hold / vibrato
 .   palm mute
 /   slide up
 \   slide down
 *   pinch harmonic
 '   natural harmonic
 x   mute note
 T   tap
comments
We did not receive enough feedback on this tab! Please rate:
print report bad tab
1 2 3 4 5
2 comments total.
0 reply
guitarmack wrote on August 23 2009, 06:32 pm

this whole album is in drom C# but other than that it sounds good

0 reply
Joshua Garcia wrote on September 3 2009, 01:28 am

Oh well, same thing just slided down a note.
I might fix that later.

I want to post or [tab]
guest
You may want to rate the tab now too:
select rating
Please do not post tabs as comments. Select "correction" instead!