Oops, an error
Loading. Please wait.

A Hero Loses Everyday Bass Tab

version 2
version 2

Whole song

Interactive

88 views 1 this week
no commentswrite comment
1 2 3 4 5
3 more votes to show rating
add to favorites
launch autoscroll
font size
0
reset
guitar tuner
Autoscroll
slow
fast
+/-
esc
set tempo
stop
Help us to improve Ultimate-Guitar.com Take our survey!
×
Author
Difficulty
Tuning
intermediate
C# G# C# F# A# D#
Title: A Hero Loses Everyday
Artist: Silverstein
Album: A Shipwreck In The Sand
Words: Silverstein
Music: Silverstein
Copyright: Silverstein


Legend
L - tied note
x - dead note
h - hammer on/pull off
b - bend
s - slide
~ - vibrato
g - ghost note
> - accentuated note
t - trill
M - palm mute
. - staccato
P - popping (bass)
S - slapping (bass)
+ - tapping
W - wide vibrato
< - fade in
w - whammy bar
= - tremolo picking
v - brush up
^ - brush down
V - pick stroke up
n - pick stroke down


F#||------------|-------------|-------------|------------|||
C#||o-----------|-------------|-------------|-----------o|||
G#||o-----------|-------------|-------------|-----------o|||
C#||------------|-------------|-------------|------------|||


---------------------|----------------------|----------------------|
o--------------------|----------------------|----------------------|
o--------------------|----------------------|----------------------|
-2--2.----2--2.------|--3--3.----3--3.------|--2--2.----2--2.------|


---------------------|||---------------------------------------------------|
--------------------o|||o--------------------------------------------------|
--------------------o|||o--------------------------------------------------|
--3--3.----3--3--3---|||-3--3--3--3--3--3--3L----------------------3L------|


-------|----------------------------------------------------|-------|
-------|----------------------------------------------------|-------|
-------|----------------------------------------------------|-------|
--3----|--7--7--7--7--7--7--7L----------------------7L------|--7----|


----------------------------|----------------------------|
----------------------------|----------------------------|
----------------------------|----------------------------|
--2--2.----2--2.----3--3----|-----3-----------------5L---|


----------------------------|---------------------------|||
----------------------------|--------------------------o|||
----------------------------|--------------------------o|||
--5--5--5-----5--5--5--5L---|--5--5--5-----5--5--5--5---|||


---------------------|----------------------|----------------------|
o--------------------|----------------------|----------------------|
o--------------------|----------------------|----------------------|
-2--2.----2--2.------|--3--3.----3--3.------|--2--2.----2--2.------|


---------------------||----------------------------------------------------|
--------------------o||----------------------------------------------------|
--------------------o||----------------------------------------------------|
--3--3.----3--3--3---||--3--3--3--3--3--3--3L----------------------3L------|


-------|----------------------------------------------------|-------|
-------|----------------------------------------------------|-------|
-------|----------------------------------------------------|-------|
--3----|--7--7--7--7--7--7--7L----------------------7L------|--7----|


----------------------------|----------------------------|
----------------------------|----------------------------|
----------------------------|----------------------------|
--2--2.----2--2.----3--3----|-----3-----------------5L---|


----------------------------|----------------------------||
----------------------------|----------------------------||
----------------------------|----------------------------||
--5--5--5-----5--5--5-------|--5--5--5-----5--5--5--5----||


---------------------------|----------------------------|
o--------------------------|----------------------------|
o---------------------3L---|--3-----3--------3--3-------|
-3-----3--------3--3-------|-----------------------5L---|


----------------------------|---------------------------||----------------|
----------------------------|--------------------------o||----------------|
----------------------------|--------------------------o||----------------|
--5-----5--------5--5--5L---|--5-----5--------5--5--5---||--3s------------|


----------------|----------------|----------------|----------------------------|
----------------|----------------|----------------|----------------------------|
----------------|----------------|----------------|----------------------------|
----------------|----------------|----------------|--7--7----------------------|


----------------|----------------------------|----------------|
----------------|----------------------------|----------------|
----------------|----------------------------|----------------|
----------------|--3--3--3-------------------|----------------|


----------------------------|----------------|----------------------------|
----------------------------|----------------|----------------------------|
----------------------------|----------------|----------------------------|
--7--7----------------------|----------------|--3--3--3--3----------------|


----------------|----------------------------|----------------|
----------------|----------------------------|----------------|
----------------|----------------------------|----------------|
----------------|--7--7----------------------|----------------|


----------------------------|----------------------------|
----------------------------|----------------------------|
----------------------------|----------------------------|
--3--3--3--3--3--3--3--3----|--3--3--3--3--3--3--3--3----|


----------------------------|----------------------------|
----------------------------|----------------------------|
----------------------------|----------------------------|
--7--7--7--7--7--7--7--7L---|--7--7--7--7--2--2-----2----|


----------------------------|----------------------------|
----------------------------|----------------------------|
----------------------------|----------------------------|
--3--3--3--3--3--3--3--3L---|--3--3--3--3--5--5-----5----|


----------------------------|----------------------------|
----------------------------|----------------------------|
----------------------------|----------------------------|
--7--7--7--7--7--7--7--7L---|--7--7--7--7--10-10----10---|


----------------------------|----------------------------|
----------------------------|----------------------------|
----------------------------|----------------------------|
--3--3--3--3--3--3--3--3L---|--3--3--3--3--5--5-----5----|


----------------------------|----------------------------|
----------------------------|----------------------------|
----------------------------|----------------------------|
--7--7--7--7--7--7--7--7L---|--7--7--7--7--2--2-----2----|


----------------------------|----------------------------|
----------------------------|----------------------------|
----------------------------|----------------------------|
--3--3--3--3--3--3--3--3L---|--3--3--3--3--5--5-----5----|


----------------------------|----------------------------|
----------------------------|----------------------------|
----------------------------|----------------------------|
--7--7--7--7--7--7--7--7L---|--7--7--7--7--10-10----10---|


----------------------------|----------------------------|
----------------------------|----------------------------|
----------------------------|----------------------------|
--3--3--3--3--3--3--3--3L---|--3--3--3--3--5--5-----5----|


----------------------------------------------------|-------|
----------------------------------------------------|-------|
----------------------------------------------------|-------|
--3--3--3--3--3--3--3L----------------------3L------|--3----|


----------------------------------------------------|-------|
----------------------------------------------------|-------|
----------------------------------------------------|-------|
--7--7--7--7--7--7--7L----------------------7L------|--7----|


----------------------------|----------------------------|-------|-------||
----------------------------|----------------------------|-------|-------||
----------------------------|----------------------------|-------|-------||
--2--2.----2--2.----3--3----|-----3-----------------5L---|--5L---|--5----||


---------------------------|----------------------------|
o--------------------------|----------------------------|
o---------------------3L---|--3-----3--------3--3-------|
-3-----3--------3--3-------|-----------------------5L---|


----------------------------|---------------------------|||
----------------------------|--------------------------o|||
----------------------------|--------------------------o|||
--5-----5--------5--5--5L---|--5-----5--------5--5--5---|||


---------------------|----------------------|----------------------|
o--------------------|----------------------|----------------------|
o--------------------|----------------------|----------------------|
-2--2.----2--2.------|--3--3.----3--3.------|--2--2.----2--2.------|


---------------------||----------------------|----------------------|
--------------------o||----------------------|----------------------|
--------------------o||----------------------|----------------------|
--3--3.----3--3--3---||--2--2.----2--2.------|--3--3.----3--3.------|


----------------------|----------------------|----------------------|
----------------------|----------------------|----------------------|
----------------------|----------------------|----------------------|
--2--2.----2--2.------|--3--3.----3--3--3----|--2--2--2--2--2--2----|


----------------------|----------------------|----------------------|
----------------------|----------------------|----------------------|
----------------------|----------------------|----------------------|
--3--3--3--3--3--3----|--2--2--2--2--2--2----|--3--3.----3--3--3----|


----------------------||
----------------------||
----------------------||
----------------------||
Suggest correction
Give kudos to tab author, rate the tab!
1 2 3 4 5
comments
print report bad tab
guest
You may want to rate the tab now too:
select rating
Wanna post a correction for this tab? Suggest correction