Oops, an error
Loading. Please wait.

A Hero Loses Everyday Tab

version 2
version 2

Whole song

Interactive

2,077 views 1 this week
3 commentsread comments
1 2 3 4 5
x 3
add to favorites
launch autoscroll
font size
0
reset
how to read this tab
guitar tuner
Autoscroll
slow
fast
+/-
esc
set tempo
stop
Help us to improve Ultimate-Guitar.com Take our survey!
×
Author
Tuning
C# G# C# F# A# D#
Artist: Silverstein
Song: A Hero Loses Everyday
Album: A Shipwreck In The Sand
Tabbed by: Joshua Garcia (Drop D)
Transcribed to Db by deluge_nl

All credit for this tab goes to Joshua Garcia who wrote the original tab in Drop D.
I just changed it all to Db because that's the tuning for this album. Figured i 
might as well put it up here. 

Intro
Guitar 1
Eb||--------------------------------------------|
Bb||--------------------------------------------|
Gb||--------------------------------------------| x4
Db||-22--22--33--33--22--22--33--333------------|
Ab||-22--22--33--33--22--22--33--333------------|
Db||-22--22--33--33--22--22--33--333------------|


Pre-Chorus
Guitar 1
Eb||------------------------------------------|-------------------------------------------|
Bb||------------------------------------------|-------------------------------------------|
Gb||----------5--4---------------10--9--------|-55------55------4h5p4---------------------|
Db||------3--------5 -------7---------10 -----|-xx--22--xx--2---------5--5----------------|
Ab||------3-----------------7-----------------|-33--22--33--2------------5---let-ring-----|
Db||-333333------------777777-----------------|-22--22--22--2------------5----------------|



Intro


Pre-Chorus x1



Chorus
Guitar 1
Eb||--------------------------------------------|
Bb||--------------------------------------------|
Gb||--12----------------------------------------| x7
Db||------9-9-10-10-12-12-10-10-9-9-10-9-10-----|
Ab||--------------------------------------------|
Db||--------------------------------------------|


Guitar 2
Eb||--------------|
Bb||--------------|
Gb||------5-------| x4
Db||--3---5---5---|
Ab||--3---3---5---|
Db||--3-------5---|



Bridge
Guitar 1
Eb||-------------------------------------------------------------------------------------------|
Bb||-------------------------------------------------------------------------------------------|
Gb||-12-------12-------12-------12-------12-------12--9-------9------9------9------9------9----| x3
Db||----12-10----12-10---12-10----12-10----12-10--------9-10----9-10---9-10---9-10---9-10------|
Ab||-------------------------------------------------------------------------------------------|
Db||-------------------------------------------------------------------------------------------|
     .  .  .   . .  .  .  .  .  .  . .   .  .  .   .  . .  .  .  . .  . . .    . . .  . . .  . 

Guitar 2
Eb||----------------------------------------------------|
Bb||----------------------------------------------------|
Gb||----------------------------------------------------|
Db||---------------------------------------333333-------|
Ab||-77----333----77----333----77-------333333333-------|
Db||-77----333----77----333----77----333333333333-------|
                                     ......


Verse
Eb||-------------------------------------------------------------------------------------------|
Bb||-------------------------------------------------------------------------------------------|
Gb||-12-------12-------12-------12-------12-------12-9-------9------9------9------9------9-----| x2
Db||----12-10----12-10---12-10----12-10----12-10------9-10----9-10---9-10---9-10---9-10--------|
Ab||-------------------------------------------------------------------------------------------|
Db||-------------------------------------------------------------------------------------------|

Eb||-----------------|
Bb||-----------------|
Gb||-12--------------| (Back to verse)
Db||----12-10-12-----|
Ab||-----------------|
Db||-----------------|
     .  .  .   . 


Guitar 2
Eb||--------------------------------------------------------------------|
Bb||--------------------------------------------------------------------|
Gb||--------------------------------------------------------------------| x2
Db||-77777777777722223333333333335555777777777777-10--333333333335555---|
Ab||-77777777777722223333333333335555777777777777-10--333333333335555---|
Db||-77777777777722223333333333335555777777777777-10--333333333335555---|


Pre-Chorus
Guitar 1
Eb||------------------------------------------|-------------------------------------------|
Bb||------------------------------------------|-------------------------------------------|
Gb||----------5--4---------------10--9--------|-----------------4h5p4---------------------|
Db||------3--------5 -------7---------10 -----|-22--22--22--2---------5--5----------------|
Ab||------3-----------------7-----------------|-22--22--22--2------------5---let-ring-----|
Db||-333333------------777777-----------------|-22--22--22--2------------5----------------|




Chorus



Outro
Guitar 1
Eb||---------------------------------------|-------------------------------|
Bb||---------------------------------------|-------------------------------|
Gb||---------------------------------------|-------------------------------|
Db||-22--22--33--33--22--22--33--333-------|--22222233333322222233-333-----|
Ab||-22--22--33--33--22--22--33--333-------|--22222233333322222233-333-----|
Db||-22--22--33--33--22--22--33--333-------|--22222233333322222233-333-----|


Guitar 2
Eb||---------------------------------|----------------------------------------|
Bb||---------------------------------|----------------------------------------|
Gb||-12-------12-------9------9------|-12-------12-------9------9-------------|
Db||----12-10---12-10---9-10---9-10--|---12-10----12-10----9-10---9-10--------|
Ab||---------------------------------|----------------------------------------|
Db||---------------------------------|----------------------------------------|


Eb||-----------------------------------|----------------------------------------|
Bb||-----------------------------------|----------------------------------------|
Gb||-12-------12-------9------9--------|-12-------12-------9--------------------|
Db||----12-10---12-10----9-10---9-10---|----12-10---12-10-----------------------|
Ab||-----------------------------------|----------------------------------------|
Db||-----------------------------------|----------------------------------------|



Tablature Legend
----------------
 h   - hammer-on
 p   - pull-off
 b   - bend
 *   - pinch harmonic
 x   - mute note
 .   - palm mute
 /   - slide down
 \   - slide up
Suggest correction
Give kudos to tab author, rate the tab!
1 2 3 4 5
comments
print report bad tab
3 comments total.
+1 reply
Joshua Garcia 5,031 Sep 23, 2009 11:03 PM

Small fix on the last part of the Pre-Chorus. It's easy to miss, but the lead switches like this:

-------------------------------------------|
-55------55------4h5p4---------------------|
-xx--22--xx--2---------5--5----------------|
-33--22--33--2------------5---let-ring-----|
-22--22--22--2------------5----------------|

Nevertheless, everything is perfect!

0 reply
Joshua Garcia 5,031 Sep 23, 2009 11:11 PM

Wish I could rate 5*, but it won't let me.

0 reply
deluge_nl 145 Sep 24, 2009 11:43 AM

Ah yes i hear it now, updated it. hope it gets accepted soon. Thanks for the correction =)

guest
You may want to rate the tab now too:
select rating
Wanna post a correction for this tab? Suggest correction