Oops, an error
Loading. Please wait.

A Shipwreck In The Sand Bass Tab

version 1
version 1

Whole song

298 views 1 this week
no commentswrite comment
1 2 3 4 5
please rate
add to favorites
launch autoscroll
font size
0
reset
guitar tuner
Autoscroll
slow
fast
+/-
esc
set tempo
stop
Help us to improve Ultimate-Guitar.com Take our survey!
×
Contributor
Tuning
RaiLeff 12,159
C# G# C# F# A# D#
++++++++++++++++++++++++++++++++++++++++
| Silverstein- A Shipwreck In The Sand |
++++++++++++++++++++++++++++++++++++++++


"Follow your dreams..."


Tuning: Drop C# (C#ADG)



Intro
"This vessel was to venture..."
1.
G||----------------------------------------------------------------------------|
D||----------------------------------------------------------------------------|
A||----------------------------------------------------------------------------|
C#|--------------------------5~--5-55~--5-55~--5-55~--0~--0-00~--0-00~--0-00~--|

"As time passed by..."
2.
G||----------------------------------------------------------------------------|
D||----------------------------------------------------------------------------|
A||----------------------------------------------------------------------------|
C#|-7~--7-77~--7-77~--7-77~--5~--5-55~--5-55~--5-55~--0~--0-00~--0-00~--0-00~--|

Verse
"You crossed the line..."
3.
G||-------------------------------------------------------------------------|
D||-------------------------------------------------------------------------|
A||-------------------------------------------------------------------------|
C#|-777x--777x--77x---777x--777x--77x---333x--333x--33x---333x--333x--33x---|

"And everyone should take the lead..."
4.
G||-------------------------------------------------------------------------|
D||-------------------------------------------------------------------------|
A||-------------------------------------------------------------------------|
C#|-000x--000x--00x---000x--000x--00x---333x--333x--33x---333x--333x--33x---|

"As the mutiny started..."
5.
G||-------------------------------------------------------|
D||-------------------------------------------------------|
A||-------------------22224444-------------------44442222-|
C#|-7~--7-77~--7-77~-----------3~--3-33~--3-33~-----------|

6.
G||----------------------------------------------------|
D||----------------------------------------------------|
A||----------------------------------------------------|
C#|-0~--0-00~--0-00~--0-00~--3~--3-33~--3-33~--3-33~---|

Verse
"You've lost your minds..."
7.
G||-------------------------------------------------------------------------|
D||-------------------------------------------------------------------------|
A||-------------------------------------------------------------------------|
C#|-777x--777x--77x---777x--777x--77x---333x--333x--33x---333x--333x--33x---|

"And even if they disagree..."
8.
G||--------------------------------------------------------------------------|
D||--------------------------------------------------------------------------|
A||--------------------------------------------------------------------------|
C#|-000x--000x--00x---000x--000x--00x---777x--777x--77x---77777777-77777777--|

9.
G||---------------------------------------------------------------------|
D||---------------------------------------------------------------------|
A||---------------------------------------------------------------------|--x6
C#|-33333~-333~-333~-55555~-555~-555~-77777~-777~-777~-77777~-777~-777~-|

"This union..."
10.
G||-------------------------------------------------------------------------|
D||-------------------------------------------------------------------------|
A||-------------------------------------------------------------------------|
C#|-33333333-33333333-55555555-55555555-77777777-77777777-77777777-77777777-|

Outro
11.
G||-------------------|
D||-------------------|
A||-------------------|
C#|-0~----------------|


Please rate thanks!!


Lyrics:

Once upon a time
Before the lakes and rivers were polluted
Before the animals were poached to extinction
And before man had destroyed the earth's atmosphere
There was a great ship.

This vessel was to venture into new waters
To find new resources, to make life easier and more enjoyable.

It was a simple mission for the crew
Who were excited to be a part of this union
They pledged their allegiance to the captain
And vowed to be there no matter what
In sickness, health, and possible death

As time passed by, there was no new land to be found
As the days grew shorter
And the nights grew longer and colder
The crew became more and more skeptical about the captain's vision
Originally passionate and committed true and faithful
They now began to revolt.

You crossed the line
I was honest
I never promised anything
Just a brotherhood to stand for something
And everyone should take the lead
Follow your dreams
If you don't try, you fail

As the mutiny started and the captain was overthrown and chained
He asked them why their minds had changed
There's no gold to be found, no treasure in the ground
We won't die for this
We won't die for you

You've lost your minds
I was honest
I never promised anything
Just a brotherhood to stand for something
And even if they disagree
Follow your dreams
If you don't try, you fail.

This dream is now
A shipwreck in the sand
They gave up, they made all their demands
The storm consumed fifty seven souls
Who died in vain, his love they stole

This union, a battle fought and lost
This union is not about the cause
This union was never about love



+++++++++++++++++++++++++++++++++
| Raileff                       |
| Underground__Dora@Hotmail.Com | 
+++++++++++++++++++++++++++++++++
Suggest correction new What's this?
You can suggest a correction to this tab. Community and Mods will review your correction and vote to approve or reject it.
comments
We did not receive enough feedback on this tab! Please rate:
print report bad tab
1 2 3 4 5
I want to post or [tab]
guest
You may want to rate the tab now too:
select rating
Please do not post tabs as comments. Select "correction" instead!