Oops, an error
Loading. Please wait.

Already Dead Tab

version 1
version 1

Whole song

Interactive

24,114 views 12 this week
5 commentsread comments
1 2 3 4 5
x 14
add to favorites
launch autoscroll
font size
0
reset
how to read this tab
guitar tuner
Autoscroll
slow
fast
+/-
esc
set tempo
stop
Help us to improve Ultimate-Guitar.com Take our survey!
×
Author
Tuning
D A D G B E
Band-------- Silverstein
Song-------- Already Dead
Album------- Discovering the water front
Tuning------ Drop-D tuning
Tabbed By--- Mike V.



Gt.1    Verse & intro
E|--------------------------------------------------------------------------|
B|--------------------------------------------------------------------------|
G|--------------------------------------------------------------------------|
D|-------------6---6---7---7---4---4-----6-7---6-7-4p6p4---4----------------|
A|-4-6-7-4-6-7---7---7---6---6---6---6--4-----4-----------7---7-6-4-6-7~----|
D|--------------------------------------------------------------------------|
Gt.2   bridge 1 & Intro
E|----------------------------------------------------------|
B|---2---2-4---2---2-------2---2-4---2----------------------|
G|-4---4-----4---4-------4---4-----4--2p4p2-1---------------|
D|--------------------------------------------4-------------|
A|----------------------------------------------------------|
D|----------------------------------------------------------|

Gt.1 Cont. verse while gt. 2 plays...
verse 
E|----------------------------------------------------------|
B|----------------------------------------------------------|
G|----------------------------------------------------------|
D|----------------------------------------------------------|
A|---11-11----7-7----9-9------------------------------------|
D|---11-11----7-7----9-9------------------------------------|

then in scream part gt.1 & gt.2 play bridge, then repeat verse again until Chorus...

Chorus
Gt.1 & 2   
E|----------------------------------------------------------|
B|----------------------------------------------------------|
G|------9-----9-----9-----9---------------------------------|
D|-------9-----9-----9-----9--------------------------------|Repeat through 
A|---9------7-----9-----7-----------------------------------|    Chorus
D|---9------7-----9-----7-----------------------------------|

Verse

bridge 1

verse
 
Chorus

Now bridge 2...
Gt.1 plays
E|----------------------------------------------------------|
B|----------------------------------------------------------|
G|----------------------------------------------------------|
D|---7-7-7-7------------------------------------------------|until bridge 1
A|---7-7-7-7------------------------------------------------|is played again
D|---7-7-7-7------------------------------------------------|

while gt.1 plays that gt.2 plays
verse 
E|----------------------------------------------------------|
B|----------------------------------------------------------|
G|----------------------------------------------------------|
D|----------------------------------------------------------|
A|---11-11----7-7----9-9------------------------------------|
D|---11-11----7-7----9-9------------------------------------|

Chorus

then outro

E|----------------------------------------------------------|
B|----------------------------------------------------------|
G|----7-------10-------12-----------------------------------|
D|-------(x8)----(x8)-----(x8)------------------------------|
A|----5--------8-------10-----------------------------------|
D|----------------------------------------------------------|

That's it you might have to improvise on the bridge but that's it....
Suggest correction
comments
print report bad tab
5 comments total. Showing first comments.
-1 reply
nightsk8er 15 Jan 11, 2006 02:13 PM

pretty darn good

+1 reply
a7x_rocker_a7x 10 Jun 04, 2006 12:42 AM

intro guitar 2 is wrong

-1 reply
gtr-boy 278 Jun 10, 2006 12:38 PM

well there is another already dead tab and it sounds way better
maybe instead of saying when the guy screams say what time in the song its easier to understand

guest
You may want to rate the tab now too:
select rating
Wanna post a correction for this tab? Suggest correction