Oops, an error
Loading. Please wait.

Already Dead Bass Tab

version 2
version 2

Whole song

Interactive

651 views 1 this week
1 commentread comment
1 2 3 4 5
accurate
x 3
add to favorites
launch autoscroll
font size
0
reset
guitar tuner
Autoscroll
slow
fast
+/-
esc
set tempo
stop
Help us to improve Ultimate-Guitar.com Take our survey!
×
Author
Difficulty
intermediate
ALREADY DEAD

Tuning: Standard or Dropped D

intro
|-----|
|-----|
|-55/-|
|-----|

|--------2-1-------|
|------------2-4---|
|-000-000--------4-|
|------------------|

|--------2-1-------|
|------------2-4-0-|
|-000-000----------|
|------------------|

verse
|----------|x4
|----------|
|-44-00-22-|
|----------|

|--------2-1-------|
|------------2-4---|
|-000-000--------4-|
|------------------|

|--------2-1-------|
|------------2-4-0-|
|-000-000----------|
|------------------|

|----------|x4
|----------|
|-44-00-22-|
|----------|

chorus x4                         3rd
|---------------------------------[---]
|---------------------------------[4\2]
|-4-4-444-0-0-000-2-2-222-2-2-222-[---]
|---------------------------------[---]

verse
|----------|x4
|----------|
|-44-00-22-|
|----------|

|--------2-1-------|
|------------2-4---|
|-000-000--------4-|
|------------------|

|--------2-1-------|
|------------2-4-0-|
|-000-000----------|
|------------------|

|----------|x4
|----------|
|-44-00-22-|
|----------|

chorus x4                         3rd
|---------------------------------[---]
|---------------------------------[4\2]
|-4-4-444-0-0-000-2-2-222-2-2-222-[---]
|---------------------------------[---]

pre-bridge
|----|
|----|
|-4\-|
|----|

bridge
|----------------------------------------------|
|----------------------------------------------|
|-44----4400----4400----440022--440022--440022-|
|----------------------------------------------|

|------------------|x4
|------------------|
|-4444000022222222-|
|------------------|

chorus x4                         3rd
|---------------------------------[---]
|---------------------------------[4\2]
|-4-4-444-0-0-000-2-2-222-2-2-222-[---]
|---------------------------------[---]

outro
|-----------------6666666666666666-|x2
|----------------------------------|
|-4444444444444444-----------------|
|----------------------------------|

|----|
|----|
|-44-|
|----|
===================================================================================
Suggest correction
Give kudos to tab author, rate the tab!
1 2 3 4 5
comments
print report bad tab
1 comment total.
+1 reply
halfpastnever12 112 wrote on May 11 2008, 06:57 pm

the bridge actually is wrong
|-44----440----4400----44002--440022--440022-|

guest
You may want to rate the tab now too:
select rating
Please do not post tabs as comments. Select "correction" instead!