Oops, an error
Loading. Please wait.

Already Dead Tab

version 3
version 3

Whole song

Interactive

4,693 views 3 this week
5 commentsread comments
1 2 3 4 5
accurate
x 5
add to favorites
launch autoscroll
font size
0
reset
how to read this tab
guitar tuner
Autoscroll
slow
fast
+/-
esc
set tempo
stop
Help us to improve Ultimate-Guitar.com Take our survey!
×
Author
Difficulty
Tuning
intermediate
D A D G B E
Silverstein
"Already Dead"
Discovering the Waterfront

INTRO (Part One) :

|--------------------------------------------------------------------------|
|--------------------------------------------------------------------------|
|--------------------------------------------------------------------------|
|--------------6--6--7--7--4--4----6-7--6-7-4/6/4---4----------------------|
|--4-6-7-4-6-7--7--7--6--6--6--6--4----4----------7---7-6-4-6-7~-----------|
|--------------------------------------------------------------------------|


(Part Two) :


Right Speaker-

|--------------------------------------------------------------------------|
|----2---2-4---2---2----2---2-4---2----------------------------------------|
|--4---4-----4---4----4---4-----4---4-2/4/2-1------------------------------|
|---------------------------------------------4----------------------------|
|--------------------------------------------------------------------------|
|--------------------------------------------------------------------------|


Left Speaker-

|--------------------------------------------------------------------------|
|--------------------------------------------------------------------------|
|--------------------------------------------------------------------------|
|----------1------------------1--------------------------------------------|
|--2-4-2-4---2-4-2-4--2-4-2-4---2-4-2-0/2/0--------------------------------|
|-------------------------------------------6-4----------------------------|


VERSE :

Left Speaker-

|--------------------------------------------------------------------------|
|---------------------------------------------------------------(*x2*)-----|
|--------------------------------------------------------------------------|
|--------------6--6--7--7--4--4----6-7--6-7-4/6/4---4----------------------|
|--4-6-7-4-6-7--7--7--6--6--6--6--4----4----------7---7-6-4-6--------------|
|--------------------------------------------------------------------------|

**After this, play "Intro Part Two" once ("left speaker" part), then play "verse" again.


Right Speaker/Other Guitarist-

|--------------------------------------------------------------------------|
|--------------------------------------------------------------------------|
|--------------------------------------------------------------------------|
|--11-11--7-7--9-9---------------------------------------------------------|
|--11-11--7-7--9-9------(*x4*)---------------------------------------------|
|--11-11--7-7--9-9---------------------------------------------------------|

**After this, play "Intro Part Two" once ("right speaker" part), then play "verse" again.


CHORUS :

|-----0------0-------0---0-------------------------------------------------|
|--------0------0-------0---0----------------------------------------------|
|--------------------------------------------------------------------------|
|--11~-----7~-----9~------------------(*x4*)-------------------------------|
|--11~-----7~-----9~-------------------------------------------------------|
|--11~-----7~-----9~-------------------------------------------------------|


*Both guitars play Verse again
*Both guitars Chorus again


BRIDGE (Part One) :

(Play around with this)

|--------------------------------------------------------------------------|
|--------------------------------------------------------------------------|
|--------------------------------------------------------------------------|
|--7-----------------------------------------------------------------------|
|--7-----------(uses distortion peddle or something, not sure...)----------|
|--7-----------------------------------------------------------------------|


Other Guitar (Comes in on about 2:06)-

|--------------------------------------------------------------------------|
|--------------------------------------------------------------------------|
|--------------------------------------------------------------------------|
|--11-11----11-11--7----11-11--7-7----11-11--7-7--9----11-11--7-7--9-9-----|
|--11-11----11-11--7----11-11--7-7----11-11--7-7--9----11-11--7-7--9-9-----|
|--11-11----11-11--7----11-11--7-7----11-11--7-7--9----11-11--7-7--9-9-----|

|--------------------------------------------------------------------------|
|--------------------------------------------------------------------------|
|--------------------------------------------------------------------------|
|--11-11--7-7--9-9---------------------------------------------------------|
|--11-11--7-7--9-9---------------------------------------------------------|
|--11-11--7-7--9-9---------------------------------------------------------|


(Part Two) :

Left Speaker-

|--------------------------------------------------------------------------|
|---------------------------------------------------------------(*x2*)-----|
|--------------------------------------------------------------------------|
|--------------6--6--7--7--4--4----6-7--6-7-4/6/4---4----------------------|
|--4-6-7-4-6-7--7--7--6--6--6--6--4----4----------7---7-6-4-6--------------|
|--------------------------------------------------------------------------|


Right Speaker/Other Guitarist-

|--------------------------------------------------------------------------|
|--------------------------------------------------------------------------|
|--------------------------------------------------------------------------|
|--11-7-9------------------------------------------------------------------|
|--11-7-9------(Figure out strumming, not hard)--(*x4*)--------------------|
|--11-7-9------------------------------------------------------------------|

*Both guitars play Chorus again


OUTRO :

Left Speaker-

|--------------------------------------------------------------------------|
|--------------------------------------------------------------------------|
|--6--6-8-9--9/11-9-------------------------------------------6/-----------|
|--x--x-x-x--x/-x-x--(figure out strumming, not hard, then:)--x/-----------|
|--4--4-6-7--7/-9-7-------------------------------------------4/-----------|
|--------------------------------------------------------------------------|


Right Speaker/Other Guitarist-

|--------------------------------------------------------------------------|
|--------------------------------------------------------------------------|
|--------------------------------------------------------------------------|
|--11----7-------------------------------------------11/-------------------|
|--11----7--(figure out strumming, not hard, then:)--11/-------------------|
|--11----7-------------------------------------------11/-------------------|

AND THERE YA GO!  Not very hard, and pretty fun to play!  Let me know what ya think!  
and enjoy!

Also:  I got some comments on the Chorus being unaccurate, and i realized that i did it 
before, so its fixed now!
Suggest correction
comments
print report bad tab
5 comments total. Showing first comments.
0 reply
elementwigs 10 wrote on July 5 2006, 10:32 pm

hard to read and the chors is not accurate

0 reply
fret13 1,031 wrote on July 18 2006, 09:49 am

i dont know what the other people are talking about i got this right away the only problem i saw wasthe chorus the 00 isnt a chord you play them seperate

0 reply
fret13 1,031 wrote on July 21 2006, 11:41 pm

good now its 5*

guest
You may want to rate the tab now too:
select rating
Wanna post a correction for this tab? Suggest correction