Oops, an error
Loading. Please wait.

Always And Never Bass Tab

version 1
version 1

Whole song

Interactive

1,348 views 1 this week
1 commentread comment
1 2 3 4 5
x 4
add to favorites
launch autoscroll
font size
0
reset
guitar tuner
Autoscroll
slow
fast
+/-
esc
set tempo
stop
Help us to improve Ultimate-Guitar.com Take our survey!
×
Author
Difficulty
intermediate
ALWAYS AND NEVER

Tuning:Dropped D

intro
|-----------------|x2
|-----------------|
|-22-2-0-22-2-0-2-|
|-----------------|
            
|-----------------|x2
|-----------------|
|-00-5-4-00-5-4-0-|
|-----------------|

|-----------------|x2
|-----------------|
|-22-2-0-22-2-0-2-|
|-----------------|
            
|-----------------|x2
|------------4--0-|
|-00-5-4-00-------|
|-----------------|

verse
|---------------------------------|
|-44444444444444444444444444444444|
|---------------------------------|
|---------------------------------|

|-----------------------------------------------------------------|x4
|-000000000000000000000000000000044444444444444444444444444444444-|
|-----------------------------------------------------------------|
|-----------------------------------------------------------------|

pre-chorus
|-----------------0000000000000000-|
|-4444444444444444-----------------|
|----------------------------------|
|----------------------------------|

|--------------|x2
|-4-0-4-0-44-2-|
|--------------|
|--------------|

chorus
|------------------------------------------------------------------|x2
|---------------------------------0000000000000000000000000000-----|
|-2222222222222222--------------------------------------------4444-|
|-----------------0000000000000000---------------------------------|

verse
|-----------------------------------------------------------------|x4
|-000000000000000000000000000000044444444444444444444444444444444-|
|-----------------------------------------------------------------|
|-----------------------------------------------------------------|

pre-chorus
|-----------------0000000000000000-|
|-4444444444444444-----------------|
|----------------------------------|
|----------------------------------|

|--------------|x2
|-4-0-4-0-44-2-|
|--------------|
|--------------|

chorus
|------------------------------------------------------------------|x2
|---------------------------------0000000000000000000000000000-----|
|-2222222222222222--------------------------------------------4444-|
|-----------------0000000000000000---------------------------------|

|--------------|x2
|-4-0-4-0-44-2-|
|--------------|
|--------------|

bridge
|------------------------------------------|x2
|------------------------------------------|
|-----------00-0000-00---------------------|
|-00-0000-00----------55-5555-55-44-4444-44|

|------------------------------------------------------------------|x2
|------------------------------------------------------------------|
|-2222222222222222----------------0000000000000000-----------------|
|-----------------0000000000000000----------------5555555555554444-|


chorus
|------------------------------------------------------------------|x2
|---------------------------------0000000000000000000000000000-----|
|-2222222222222222--------------------------------------------4444-|
|-----------------0000000000000000---------------------------------|

outro
|-----------------------------|
|-----------------------------|
|-----------------------------|
|-0-4-4-0-4-4-4-0-4-4-0-4-4-4-|
===================================================================================
Suggest correction
comments
print report bad tab
1 comment total.
0 reply
carrotcake 1,997 Jul 02, 2007 08:26 PM

if you use octaves in the verse and pre chorus and at the end of the chorus then it'll be all right, and this is how the intro is played:
|------------------------------------|
|------------------------------------|
|-22-2-2--22-2-0-2--22-2-2--22-2-5-0-|
|------------------------------------|

|------------------------------------|
|------------------------------------|
|-55-5-5--55-5-2-5--55-5-5--55-5-0-2-|
|------------------------------------|

guest
You may want to rate the tab now too:
select rating
Wanna post a correction for this tab? Suggest correction