Oops, an error
Loading. Please wait.

Always And Never Tab

version 1
version 1

Whole song

Interactive

9,978 views 1 this week
12 commentsread comments
1 2 3 4 5
x 4
add to favorites
launch autoscroll
font size
0
reset
how to read this tab
guitar tuner
Autoscroll
slow
fast
+/-
esc
set tempo
stop
Help us to improve Ultimate-Guitar.com Take our survey!
×
Author
Tuning
D A D G B E
Artist: Silvertein
Song: Always and Never
CD: Discovering the Waterfront
Tuning: Dropped D
Low to High
(DADGBe)
Tabbed By: fret13

There have been some accurate tabs 
but they were not complete
==================================================================
UPDATE 8/7/06: just a few typos in the
lyrics
==================================================================
GUITAR 1
|------------------------|
|------------------------|
|1111-11-11-1111-11-9-11-|
|-x-x--x--x--x-x--x-x--x-|
|-9-9--9--9--9-9--9-7--9-|
|------------------------|

|--------------------------|
|--------------------------|
|1111-11-11-1111-11--14-11-|
|-x-x--x--x--x-x--x---x--x-|
|-9-9--9--9--9-9--9--12--9-|
|--------------------------|

|--------------------------|
|--------------------------|
|-1414-14-14-1414-14-16-14-|
|--x-x--x--x--x-x--x--x--x-|
|-1212-12-12-1212-12-14-12-|
|--------------------------|

|------------------------|
|------------------------|
|-1414-14-14-1414-14-911-|
|--x-x--x--x--x-x--x-x-x-|
|-1212-12-12-1212-12-7-9-|
|------------------------|

|------------------------|
|------------------------|
|1111-11-11-1111-11-9-11-|
|-x-x--x--x--x-x--x-x--x-|
|-9-9--9--9--9-9--9-7--9-|
|------------------------|

|--------------------------|
|--------------------------|
|1111-11-11-1111-11--14-11-|
|-x-x--x--x--x-x--x---x--x-|
|-9-9--9--9--9-9--9--12--9-|
|--------------------------|

|--------------------------|
|--------------------------|
|-1414-14-14-1414-14-16-14-|
|--x-x--x--x--x-x--x--x--x-|
|-1212-12-12-1212-12-14-12-|
|--------------------------|

|------------------------|
|------------------------|
|-1414-14-14-14\9--------|
|--x-x--x--x--x\x--------|
|-1212-12-12-12\7--------|
|------------------------|

|---------------------------------|
|---------------------------------|
|---------------------------------|
|-4-4-4-4-4-4-4-4-4-4-4-4-4-4-4-4-|
|-4-4-4-4-4-4-4-4-4-4-4-4-4-4-4-4-|
|-4-4-4-4-4-4-4-4-4-4-4-4-4-4-4-4-|

|--------------------------------------------------------------------------|
|--------------------------------------------------------------------------|
|-------------------------------------6-6-77-66-6-77-66-6-77-66-6-77-6-----|
|-----4-2-0------------4-2-0----------4-4-44-44-4-44-44-4-44-44-4-44-4-----|
|--4h5------4-5-4h5-4h5-------4-5-4h5-4-4-44-44-4-44-44-4-44-44-4-44-4-----|
|-0----------------0------------------4-4-44-44-4-44-44-4-44-44-4-44-4-----|

|------------------------------------------------------------|
|--------7-------------7-------------------------------------|
|-7-77-7-x-66-7-7-77-7-x-66-6-6-77-66-6-77-66-6-77-66-6-77-6-|
|-x-xx-x-4-xx-x-x-xx-x-4-xx-4-4-44-44-4-44-44-4-44-44-4-44-4-|
|-5-55-5---44-5-5-55-5---44-4-4-44-44-4-44-44-4-44-44-4-44-4-|
|0--------------------------4-4-44-44-4-44-44-4-44-44-4-44-4-|

|--------------------------------------------------------------------------|
|--------------------------------------------------------------------------|
|-------------------------------------6-6-77-66-6-77-66-6-77-66-6-77-6-----|
|-----4-2-0------------4-2-0----------4-4-44-44-4-44-44-4-44-44-4-44-4-----|
|--4h5------4-5-4h5-4h5-------4-5-4h5-4-4-44-44-4-44-44-4-44-44-4-44-4-----|
|-0----------------0------------------4-4-44-44-4-44-44-4-44-44-4-44-4-----|

|---------------------------|
|--------7-------------7----|
|-7-77-7-x-66-7-7-77-7-x-66-|
|-x-xx-x-4-xx-x-x-xx-x-4-xx-|
|-5-55-5---44-5-5-55-5---44-|
|---------------------------|

pre-chorus
|-----------------------------------------------------------|
|--------------------------------------------------e--------|
|-44444444--------11\711\7-11119-11\711\7-11119---d---------|
|-4444444400000000-x\x-x\x--x-xx--x\x-x\x--x-xx--i----------|
|-2222222200000000-9\5-9\5--9-97--9\5-9\5--9-97-l-----------|
|---------00000000-----------------------------s------------|

chorus
|--------------------------------------------------------------------------|
|--------------------------------------------------------------------------|
|-4-4-4-4-4-4-4-4----------------------------------------------------------|
|-4-4-4-4-4-4-4-4-0-0-0-0-0-0-0-0-5-5-5-5-5-5-5-5-5-5-5-5-4-4-4-4----------|
|-2-2-2-2-2-2-2-2-0-0-0-0-0-0-0-0-5-5-5-5-5-5-5-5-5-5-5-5-4-4-4-4----------|
|-----------------0-0-0-0-0-0-0-0-5-5-5-5-5-5-5-5-5-5-5-5-4-4-4-4----------|

|--------------------------------------------------------------------------|
|--------------------------------------------------------------------------|
|-4-4-4-4-4-4-4-4----------------------------------------------------------|
|-4-4-4-4-4-4-4-4-0-0-0-0-0-0-0-0-5-5-5-5-5-5-5-5-5-5-5-5-4-4-4-4----------|
|-2-2-2-2-2-2-2-2-0-0-0-0-0-0-0-0-5-5-5-5-5-5-5-5-5-5-5-5-4-4-4-4----------|
|-----------------0-0-0-0-0-0-0-0-5-5-5-5-5-5-5-5-5-5-5-5-4-4-4-4----------|

verse 2
|--------------------------------------------------------------------------|
|--------------------------------------------------------------------------|
|--------------------------------------------------------------------------|
|-----4-2-------------------4-2---------------4----------------------------|
|--4h5----5-4-4-4-4-4h5--4h5----5-4-4-4-4-4h5-4-55-5-5-44-55-4-4-4h5-4h7---|
|-0---------------------0---------------------4-.------..------------------|

|--------------------------------------------------------------------------|
|---------------7-------------7--------------------------------------------|
|--------7-77-7-x-66-7-7-77-7-x-66-----------------------------------------|
|--4-4\2-x-xx-x-4-xx-x-x-xx-x-4-xx4---------------------------4-4\2--------|
|-4------5-55-5---44-5-5-55-5---444-55-5-5-44-55-4-4-4h5-4h7-4-------------|
|---------------------------------4-.------..------------------------------|

|--------------------------------------------------------------------------|
|--------------------------------------------------------------------------|
|--------------------------------------------------------------------------|
|-----4-2-------------------4-2---------------4----------------------------|
|--4h5----5-4-4-4-4-4h5--4h5----5-4-4-4-4-4h5-4-55-5-5-44-55-4-4-4h5-4h7---|
|-0---------------------0---------------------4-.------..------------------|

|---------------------------------|
|---------------7-------------7---|
|--------7-77-7-x-66-7-7-77-7-x-66|
|--4-4\2-x-xx-x-4-xx-x-x-xx-x-4-xx|
|-4------5-55-5---44-5-5-55-5---44|
|---------------------------------|

pre-chorus
|-----------------------------------------------------------|
|--------------------------------------------------e--------|
|-44444444--------11\711\7-11119-11\711\7-11119---d---------|
|-4444444400000000-x\x-x\x--x-xx--x\x-x\x--x-xx--i----------|
|-2222222200000000-9\5-9\5--9-97--9\5-9\5--9-97-l-----------|
|---------00000000-----------------------------s------------|

chorus
|--------------------------------------------------------------------------|
|--------------------------------------------------------------------------|
|-4-4-4-4-4-4-4-4----------------------------------------------------------|
|-4-4-4-4-4-4-4-4-0-0-0-0-0-0-0-0-5-5-5-5-5-5-5-5-5-5-5-5-4-4-4-4----------|
|-2-2-2-2-2-2-2-2-0-0-0-0-0-0-0-0-5-5-5-5-5-5-5-5-5-5-5-5-4-4-4-4----------|
|-----------------0-0-0-0-0-0-0-0-5-5-5-5-5-5-5-5-5-5-5-5-4-4-4-4----------|

|--------------------------------------------------------------------------|
|--------------------------------------------------------------------------|
|-4-4-4-4-4-4-4-4----------------------------------------------------------|
|-4-4-4-4-4-4-4-4-0-0-0-0-0-0-0-0-5-5-5-5-5-5-5-5-5-5-5-5-4-4-4-4----------|
|-2-2-2-2-2-2-2-2-0-0-0-0-0-0-0-0-5-5-5-5-5-5-5-5-5-5-5-5-4-4-4-4----------|
|-----------------0-0-0-0-0-0-0-0-5-5-5-5-5-5-5-5-5-5-5-5-4-4-4-4----------|

pre-chorus
|-----------------------------------------------------------|
|-----------------------------------------------------------|
|-44444444--------11\711\7-11119-11\711\7-11119-------------|
|-4444444400000000-x\x-x\x--x-xx--x\x-x\x--x-xx-------------|
|-2222222200000000-9\5-9\5--9-97--9\5-9\5--9-97-------------|
|---------00000000------------------------------------------|


bridge
|-----------------------|
|-----------------------|
|--9/119/11----9/119/11-|
|00x/-xx/-x0000x/-xx/-x-|
|007/-97/-900007/-97/-9-|
|00--------0000---------|
 ..        ....
|-----------------------------------------------------------------|
|-----------------------------------------------------------------|
|---9/119/11-----9/119/11----7\67\6----7\67\6----7\67\6----7\67\9-|
|---x/-xx/-x-----x/-xx/-x----x\xx\x----x\xx\x----x\xx\x----x\xx\x-|
|---7/-97/-9-----7/-97/-9----5\45\4----5\45\4----5\45\4----5\45\7-|
|-----------------------------------------------------------------|
  

|-----------------------|
|-----------------------|
|--9/119/11----9/119/11-|
|--x/-xx/-x----x/-xx/-x-|
|--7/-97/-9----7/-97/-9-|
|-----------------------|
 
|-----------------------------------------------------------------|
|-----------------------------------------------------------------|
|---9/119/11-----9/119/11----7\67\6----7\67\6----7\67\6----7\67\9-|
|---x/-xx/-x-----x/-xx/-x----x\xx\x----x\xx\x----x\xx\x----x\xx\x-|
|---7/-97/-9-----7/-97/-9----5\45\4----5\45\4----5\45\4----5\45\7-|
|-----------------------------------------------------------------|

|-----------------------|
|-----------------------|
|--9/119/11----9/119/11-|
|--x/-xx/-x----x/-xx/-x-|
|--7/-97/-9----7/-97/-9-|
|-----------------------|
 
|-----------------------------------------------------------------|
|-----------------------------------------------------------------|
|---9/119/11-----9/119/11----7\67\6----7\67\6----7\67\6----7\67\9-|
|---x/-xx/-x-----x/-xx/-x----x\xx\x----x\xx\x----x\xx\x----x\xx\x-|
|---7/-97/-9-----7/-97/-9----5\45\4----5\45\4----5\45\4----5\45\7-|
|-----------------------------------------------------------------|

|-----------------------|
|-----------------------|
|--9/119/11----9/119/11-|
|--x/-xx/-x----x/-xx/-x-|
|--7/-97/-9----7/-97/-9-|
|-----------------------|
 
|-----------------------------------------------------------------|
|-----------------------------------------------------------------|
|---9/119/11-----9/119/11----7\67\6----7\67\6----7\67\6----14-----|
|---x/-xx/-x-----x/-xx/-x----x\xx\x----x\xx\x----x\xx\x-----x-----|
|---7/-97/-9-----7/-97/-9----5\45\4----5\45\4----5\45\4----12-----|
|-----------------------------------------------------------------|


chorus
|--------------------------------------------------------------------------|
|--------------------------------------------------------------------------|
|-4-4-4-4-4-4-4-4----------------------------------------------------------|
|-4-4-4-4-4-4-4-4-0-0-0-0-0-0-0-0-5-5-5-5-5-5-5-5-5-5-5-5-4-4-4-4----------|
|-2-2-2-2-2-2-2-2-0-0-0-0-0-0-0-0-5-5-5-5-5-5-5-5-5-5-5-5-4-4-4-4----------|
|-----------------0-0-0-0-0-0-0-0-5-5-5-5-5-5-5-5-5-5-5-5-4-4-4-4----------|

|--------------------------------------------------------------------------|
|--------------------------------------------------------------------------|
|-4-4-4-4-4-4-4-4----------------------------------------------------------|
|-4-4-4-4-4-4-4-4-0-0-0-0-0-0-0-0-5-5-5-5-5-5-5-5-5-5-5-5-4-4-4-4----------|
|-2-2-2-2-2-2-2-2-0-0-0-0-0-0-0-0-5-5-5-5-5-5-5-5-5-5-5-5-4-4-4-4----------|
|-----------------0-0-0-0-0-0-0-0-5-5-5-5-5-5-5-5-5-5-5-5-4-4-4-4----------|


outro
|----------------------------------------------------|
|----------------------------------------------------|
|----------------------------------------------------|
|-0-44--0-444-0-44-0-444-----------------------------|
|-0-44--0-444-0-44-0-444-----------------------------|
|-0-44--0-444-0-44-0-444-----------------------------|
==================================================================
GUITAR 2
intro
|--------------------------------------------------|
|--------------------------------------------------|
|-4-4--4--4--4-4--4--6--7--4-4--4--4--4-4--4--7--6-|
|-x-x--x--x--x-x--x--x--x--x-x--x--x--x-x--x--x--x-|
|-2-2--2--2--2-2--2--4--5--2-2--2--2--2-2--2--5--4-|
|--------------------------------------------------|

|--------------------------------------------------|
|--------------------------------------------------|
|-7-7--7--7--7-7--7-11--7--7-7--7--7--7-7--7-11--7-|
|-x-x--x--x--x-x--x--x--x--x-x--x--x--x-x--x--x--x-|
|-5-5--5--5--5-5--5--9--5--5-5--5--5--5-5--5--9--5-|
|--------------------------------------------------|

|--------------------------------------------------|
|--------------------------------------------------|
|-4-4--4--4--4-4--4--6--7--4-4--4--4--4-4--4--7--6-|
|-x-x--x--x--x-x--x--x--x--x-x--x--x--x-x--x--x--x-|
|-2-2--2--2--2-2--2--4--5--2-2--2--2--2-2--2--5--4-|
|--------------------------------------------------|

|--------------------------------------------------|
|--------------------------------------------------|
|-7-7--7--7--7-7--7-11--7--7-7--7--7-11\6-6--------|
|-x-x--x--x--x-x--x--x--x--x-x--x--x--x\x-x--------|
|-5-5--5--5--5-5--5--9--5--5-5--5--5--9\4-4--------|
|--------------------------------------------------|

|---------------------------------|
|---------------------------------|
|---------------------------------|
|-4-4-4-4-4-4-4-4-4-4-4-4-4-4-4-4-|
|-4-4-4-4-4-4-4-4-4-4-4-4-4-4-4-4-|
|-4-4-4-4-4-4-4-4-4-4-4-4-4-4-4-4-|

verse 1
|--------------------------------------------------------------------------|
|--------------------------------------------------------------------------|
|--------------------------------------------------------------------------|
|-----4-2-0------------4-2-0----------4-4-44-44-4-44-44-4-44-44-4-44-4-----|
|--4h5------4-5-4h5-4h5-------4-5-4h5-4-4-55-44-4-55-44-4-55-44-4-55-4-----|
|-0----------------0------------------4-4-44-44-4-44-44-4-44-44-4-44-4-----|

|------------------------------------------------------------|
|--------7-------------7-------------------------------------|
|-7-77-7-x-66-7-7-77-7-x-66----------------------------------|
|-x-xx-x-4-xx-x-x-xx-x-4-xx-4-4-44-44-4-44-44-4-44-44-4-44-4-|
|-5-55-5---44-5-5-55-5---44-4-4-55-44-4-55-44-4-55-44-4-55-4-|
|---------------------------4-4-44-44-4-44-44-4-44-44-4-44-4-|

|--------------------------------------------------------------------------|
|--------------------------------------------------------------------------|
|--------------------------------------------------------------------------|
|-----4-2-0------------4-2-0----------4-4-44-44-4-44-44-4-44-44-4-44-4-----|
|--4h5------4-5-4h5-4h5-------4-5-4h5-4-4-55-44-4-55-44-4-55-44-4-55-4-----|
|-0----------------0------------------4-4-44-44-4-44-44-4-44-44-4-44-4-----|

|---------------------------|
|--------7-------------7----|
|-7-77-7-x-66-7-7-77-7-x-66-|
|-x-xx-x-4-xx-x-x-xx-x-4-xx-|
|-5-55-5---44-5-5-55-5---44-|
|---------------------------|

pre-chorus
|--------------------------------------------------------------------------|
|-----------------------------------------------------------------e--------|
|-7-7-7-7-7-7-7-7-7-7-7-7-9\79\7-7\4-7\4-7-7-6--7\4-7\4-7-7-6----d---------|
|-x-x-x-x-x-x-x-x-x-x-x-x-x\xx\x-x\x-x\x-x-x-x--x\x-x\x-x-x-x---i----------|
|-5-5-5-5-5-5-5-5-5-5-5-5-7\57\5-5\2-5\2-5-5-4--5\2-5\2-5-5-4--l-----------|
|-------------------------------------------------------------s------------|

chorus
|--------------------------------------------------------------------------|
|--------------------------------------------------------------------------|
|11111111111111111111111111111111-7-7-7-7-7-7-7-7-6-6-6-6-6-6-6-6----------|
|-x-x-x-x-x-x-x-x-x-x-x-x-x-x-x-x-x-x-x-x-x-x-x-x-x-x-x-x-x-x-x-x----------|
|-9-9-9-9-9-9-9-9-9-9-9-9-9-9-9-9-5-5-5-5-5-5-5-5-4-4-4-4-4-4-4-4----------|
|--------------------------------------------------------------------------|

|--------------------------------------------------------------------------|
|--------------------------------------------------------------------------|
|11111111111111111111111111111111-7-7-7-7-7-7-7-7-9-9-9-9-9-9-9-9----------|
|-x-x-x-x-x-x-x-x-x-x-x-x-x-x-x-x-x-x-x-x-x-x-x-x-x-x-x-x-x-x-x-x----------|
|-9-9-9-9-9-9-9-9-9-9-9-9-9-9-9-9-5-5-5-5-5-5-5-5-7-7-7-7-7-7-7-7----------|
|--------------------------------------------------------------------------|

verse 2
|--------------------------------------------------------------------------|
|--------------------------------------------------------------------------|
|--------------------------------------------------------------------------|
|-----4-2-------------------4-2---------------4----------------------------|
|--4h5----5-4-4-4-4-4h5--4h5----5-4-4-4-4-4h5-4-55-5-5-44-55-4-4-4h5-4h7---|
|-0---------------------0---------------------4-.------..------------------|

|--------------------------------------------------------------------------|
|---------------7-------------7--------------------------------------------|
|--------7-77-7-x-66-7-7-77-7-x-66-----------------------------------------|
|--4-4\2-x-xx-x-4-xx-x-x-xx-x-4-xx4---------------------------4-4\2--------|
|-4------5-55-5---44-5-5-55-5---444-55-5-5-44-55-4-4-4h5-4h7-4-------------|
|---------------------------------4-.------..------------------------------|

|--------------------------------------------------------------------------|
|--------------------------------------------------------------------------|
|--------------------------------------------------------------------------|
|-----4-2-------------------4-2---------------4----------------------------|
|--4h5----5-4-4-4-4-4h5--4h5----5-4-4-4-4-4h5-4-55-5-5-44-55-4-4-4h5-4h7---|
|-0---------------------0---------------------4-.------..------------------|

|---------------------------------|
|---------------7-------------7---|
|--------7-77-7-x-66-7-7-77-7-x-66|
|--4-4\2-x-xx-x-4-xx-x-x-xx-x-4-xx|
|-4------5-55-5---44-5-5-55-5---44|
|---------------------------------|

pre-chorus
|--------------------------------------------------------------------------|
|-----------------------------------------------------------------e--------|
|-7-7-7-7-7-7-7-7-7-7-7-7-9\79\7-7\4-7\4-7-7-6--7\4-7\4-7-7-6----d---------|
|-x-x-x-x-x-x-x-x-x-x-x-x-x\xx\x-x\x-x\x-x-x-x--x\x-x\x-x-x-x---i----------|
|-5-5-5-5-5-5-5-5-5-5-5-5-7\57\5-5\2-5\2-5-5-4--5\2-5\2-5-5-4--l-----------|
|-------------------------------------------------------------s------------|

chorus
|--------------------------------------------------------------------------|
|--------------------------------------------------------------------------|
|11111111111111111111111111111111-7-7-7-7-7-7-7-7-6-6-6-6-6-6-6-6----------|
|-x-x-x-x-x-x-x-x-x-x-x-x-x-x-x-x-x-x-x-x-x-x-x-x-x-x-x-x-x-x-x-x----------|
|-9-9-9-9-9-9-9-9-9-9-9-9-9-9-9-9-5-5-5-5-5-5-5-5-4-4-4-4-4-4-4-4----------|
|--------------------------------------------------------------------------|

|--------------------------------------------------------------------------|
|--------------------------------------------------------------------------|
|11111111111111111111111111111111-7-7-7-7-7-7-7-7-9-9-9-9-9-9-9-9----------|
|-x-x-x-x-x-x-x-x-x-x-x-x-x-x-x-x-x-x-x-x-x-x-x-x-x-x-x-x-x-x-x-x----------|
|-9-9-9-9-9-9-9-9-9-9-9-9-9-9-9-9-5-5-5-5-5-5-5-5-7-7-7-7-7-7-7-7----------|
|--------------------------------------------------------------------------|

pre-chorus
|--------------------------------------------------------------------------|
|--------------------------------------------------------------------------|
|-7-7-7-7-7-7-7-7-7-7-7-7-9\79\7-7\4-7\4-7-7-6--7\4-7\4-7-7-6--------------|
|-x-x-x-x-x-x-x-x-x-x-x-x-x\xx\x-x\x-x\x-x-x-x--x\x-x\x-x-x-x--------------|
|-5-5-5-5-5-5-5-5-5-5-5-5-7\57\5-5\2-5\2-5-5-4--5\2-5\2-5-5-4--------------|
|--------------------------------------------------------------------------|



bridge-wait a little while
|---------------------------------------------|
|---------------------------------------------|
|---6/76/7----6/76/7----11\911\9----11\911\9--|
|-00x/xx/x0000x/xx/x0099-x\x-x\x9999-x\x-x\x--|
|-004/54/500004/54/50099-9\7-9\79999-9\7-9\7--|
|-00------0000------0099--------9999----------|
  ..      ....      ....        ....

|---------------------------------------------|
|---------------------------------------------|
|-----11\911\9----11\911/12-------------------|
|-9955-x\x-x\x5544-x\x-x/-x-------------------|
|-9955-9\7-9\75544-9\7-9/10-------------------|
|-9955--------5544----------------------------|
  ....        ....         
|---------------------------------------------|
|---------------------------------------------|
|-----6/76/7----6/76/7----6/76/7----6/76/7----|
|-4400x/xx/x0000x/xx/x0044x/xx/x4422x/xx/x----|
|-44004/54/500004/54/500444/54/544224/54/5----|
|-4400------0000------0044------4422----------|
  ....      ....      ....      ....
|---------------------------------------------------------|
|---------------------------------------------------------|
|-----11\911\9----11\911\9----11\911\9----11\911\9--------|
|-2299-x\x-x\x9999-x\x-x\x9955-x\x-x\x5544-x\x-x\x--------|
|-2299-9\7-9\79999-9\7-9\79955-9\7-9\75544-9\7-9\7--------|
|-2299--------9999--------9955--------5544----------------|
  ....        ....        ....        .... 
|---------------------------------------------|
|---------------------------------------------|
|-----6/76/7----6/76/7----6/76/7----6/76/7----|
|-4400x/xx/x0000x/xx/x0044x/xx/x4422x/xx/x----|
|-44004/54/500004/54/500444/54/544224/54/5----|
|-4400------0000------0044------4422----------|
  ....      ....      ....      ....
|---------------------------------------------------------|
|---------------------------------------------------------|
|-----11\911\9----11\911\9----11\911\9----11\911\12-------|
|-2299-x\x-x\x9999-x\x-x\x9955-x\x-x\x5544-x\x-x\-x-------|
|-2299-9\7-9\79999-9\7-9\79955-9\7-9\75544-9\7-9\10-------|
|-2299--------9999--------9955--------5544----------------|
  ....        ....        ....        .... 
|---------------------------------------------|
|---------------------------------------------|
|-----6/76/7----6/76/7----6/76/7----6/76/7----|
|-4400x/xx/x0000x/xx/x0044x/xx/x4422x/xx/x----|
|-44004/54/500004/54/500444/54/544224/54/5----|
|-4400------0000------0044------4422----------|
  ....      ....      ....      ....
|----------------------------------------------------|
|----------------------------------------------------|
|-----11\911\9----11\911\9----11\911\9----11\9-12----|
|-2299-x\x-x\x9999-x\x-x\x9955-x\x-x\x5544-x\x--x----|
|-2299-9\7-9\79999-9\7-9\79955-9\7-9\75544-9\7-10----|
|-2299--------9999--------9955--------5544-----------|
  ....        ....        ....        .... 

play chous

outro
|----------------------------------------------------|
|----------------------------------------------------|
|----------------------------------------------------|
|-0-44--0-444-0-44-0-444-----------------------------|
|-0-44--0-444-0-44-0-444-----------------------------|
|-0-44--0-444-0-44-0-444-----------------------------|
====================================================================

Note on guitar 1 intro

its right if you split your speakers you hear
what he really plays
====================================================================

Lyrics

This was my fate
giving in
To your lips 
to your eyes
I should have known 
this would come back to haunt me
crooked smile
a reflection in your eyes
that shows my weakness for
beautiful mistakes
something that i know youve seen before 
im not the first
set the trap
im falling for it every time
i cant believe
everyone knew from the start
this would come back to haunt me
i cant stand to see you now 
how could i ever trust you
ill take it back to the streets
ill start again
ill never look back
back
how do you feel 
i bet you dont feel anything
dont have a heart attack
but i wont stop you
flying high
razor blades make perfect lines
on just about anything you want
broken pores spill out
everything you want to say
it shows my weakness
for falling in love with my
wallowing despair
that shines to black it consumes me
ill take it back 
ill build it back to what it was
cut me out 
of your life like 
its nothing 
like im nothing
make believe you can love
that its better
that your better
part of me is gone
youve taken
pieces from me
you wont stop 
youll never change
=============================================================
there you go just about a perfect
Always and Never

| /  slide up
| \  slide down
| h  hammer-on
| p  pull-off
| ~  vibrato
| +  harmonic
| x  Mute note
Suggest correction
comments
print report bad tab
12 comments total. Showing first comments.
0 reply
fret13 1,031 Aug 05, 2006 08:53 AM

sorry if it seems hard to read it really isnt you just have to know the song. most of it uses synchronization.

0 reply
tfk011 22 Aug 05, 2006 10:59 AM

There is a rhythm on the intro and such but good tab nonetheless.

0 reply
ethomson 121 Aug 06, 2006 09:13 PM

i hope you were thinking of me the whole time you were tabbing that out.

guest
You may want to rate the tab now too:
select rating
Wanna post a correction for this tab? Suggest correction