Oops, an error
Loading. Please wait.

American Dream Bass Tab

version 1
version 1

Whole song

Interactive

4,092 views 3 this week
no commentswrite comment
1 2 3 4 5
please rate
add to favorites
launch autoscroll
font size
0
reset
guitar tuner
Autoscroll
slow
fast
+/-
esc
set tempo
stop
Help us to improve Ultimate-Guitar.com Take our survey!
×
Author
Tuning
C# G# C# F# A# D#
+++++++++++++++++++++++++++++++
| Silverstein- American Dream |
+++++++++++++++++++++++++++++++


"I'd go years without tears..."

Tuning: Drop C# (C#ADG)



Verse
"I've gone days without food..."
1.
G||------------------------------------------------------------|
D||------------------------------------------------------------|
A||---------2~-2222------------------------2~-2222-------------|
C#|-2~-2222---------0~-00000~-0000-2~-2222---------0~----5-4-0-|

"I've got cuts I cant close..."
2.
G||---------------------------------------------------------------|
D||---------------------------------------------------------------|
A||-------2~--------------------2~------------------222222-222222-|
C#|-2~----------0~--------2~----------000000-000000---------------|

"I've been shattered and wrecked..."
3.
G||--------------------------------------------------|
D||--------------------------------------------------|
A||-666666-222222--------444444-666666-222222--------|
C#|---------------000000----------------------000000-|

"I forgot how to feel..."
4.
G||---------------------------------------------------------|
D||---------------------------------------------------------|
A||-666666-222222--------444444-666666-222222---------------|
C#|---------------000000----------------------000000-000000-|

Chorus
"We get through this..."
5.
G||---------------------------------------------------------|
D||--------444444--------4-3--------------------------------|
A||-666666--------444444-----4--222222--------222222-444444-|
C#|------------------------------------555555---------------|

"We go through this..."
6.
G||---------------------------------------------------------|
D||--------444444--------4-3-----------444444---------------|
A||-666666--------444444-----4--222222--------444444-444444-|
C#|---------------------------------------------------------|

Verse
"Id go years without tears..."
7.
G||--------------------------------------------------|
D||--------------------------------------------------|
A||-666666-222222--------444444-666666-222222--------|
C#|---------------000000----------------------000000-|

"Now Im breaking my back..."
8.
G||-----------------------------------------------------------------------|
D||-----------------------------------------------------------------------|
A||-666666-222222--------444444-666666-222222-----------------------------|
C#|---------------000000----------------------000000-000000-000000-000000-|

Chorus
"We get through this..."
9.
G||---------------------------------------------------------|
D||--------444444--------4-3--------------------------------|
A||-666666--------444444-----4--222222--------222222-444444-|
C#|------------------------------------555555---------------|

"We go through this..."
10.
G||---------------------------------------------------------|
D||--------444444--------4-3-----------444444---------------|
A||-666666--------444444-----4--222222----------------------|
C#|-------------------------------------------000000-000000-|

Outro
"I've gone days without food..."
11.
G||-------------------------------------------------------|
D||-------------------------------------------------------|
A||--------222222----------------------222222-------------|
C#|-222222--------000000-000000-222222--------0~----5-4-0-|

"I've got cuts I cant close
12.
G||---------------------------------------------------------|
D||---------------------------------------------------------|
A||--------222222----------------------222222---------------|
C#|-222222--------000000-000000-222222--------000000-000000-|

Bridge
"My American dream..."
13.
G||---------------------------------------------------------|
D||---------------------------------------------------------|
A||-222222-222222-666666-444444-222222-222222---------------|
C#|-------------------------------------------2-2-2--0-0-0--|

"He wont leave her for this..."
14.
G||-----------------------------------------------------------------------|
D||-----------------------------------------------------------------------|
A||-222222-222222-666666-444444-222222-222222-----------------------------|
C#|-------------------------------------------000000-000000-000000-0x-----|

Chorus
"We get through this..."
15.
G||---------------------------------------------------------|
D||--------444444--------4-3--------------------------------|
A||-666666--------444444-----4--222222--------222222-444444-|
C#|------------------------------------555555---------------|

"We go through this..."
16.
G||---------------------------------------------------------|
D||--------444444--------4-3--------------------------------|
A||-666666--------444444-----4--222222----------------------|
C#|------------------------------------555555-000000-000000-|

"We get through this..."
17.
G||---------------------------------------------------------|
D||--------444444--------4-3--------------------------------|
A||-666666--------444444-----4--222222--------222222-444444-|
C#|------------------------------------555555---------------|

"We go through this..."
18.
G||---------------------------------------------------------|
D||--------444444--------4-3-----------444444---------------|
A||-666666--------444444-----4--222222----------------------|
C#|-------------------------------------------000000-000000-|

Outro
"This was not a test..."
19.
G||-------------------------------------------------------|
D||-------------------------------------------------------|
A||----------------------2~-------------------------2~----|
C#|-222020-222020-222020-----0-222020-222020-222020-----0-|

20.
G||--------------------------------------------------------------------------|
D||--------------------------------------------------------------------------|
A||----------------------2~-------------------------2~-22222~-22222~-2222----|
C#|-222020-222020-222020-----0-222020-222020-222020-----------------------2x-|


Please rate thank you!!


Lyrics:


It was on our wedding day
When my heart began to stray
Never thought I'd make such a big mistake
Throw my life away

I've gone days without food
I've went weeks without sleep
Keeping this in
I've got cuts I can't close
I've got wounds that won't heal
It's all your fault

I've been shattered and wrecked
My hands covered in blood
Scars on my skin
I forgot how to feel
Now I'm weak with deceit
My skin is paper thin

We get through this
Feeling it, keeping it, holdin' it in
We go through this 
Over and over again

I'd go years without tears
In a life with no fear
A life without you
Now I'm breaking my back as
I cover my tracks
My skin is paper thin once again

My American dream
Wasn't ever to lie, steal and cheat
He won't leave her for this
What's the point?
I wish they would die

This was not a test
This was all for real



+++++++++++++++++++++++++++++++++
| RaiLeff                       |
| Underground__Dora@Hotmail.Com |
+++++++++++++++++++++++++++++++++
Suggest correction
Give kudos to tab author, rate the tab!
1 2 3 4 5
comments
print report bad tab
guest
You may want to rate the tab now too:
select rating
Please do not post tabs as comments. Select "correction" instead!