Oops, an error
Loading. Please wait.

American Dream Tab

version 1
version 1

Whole song

Interactive

23,754 views 9 this week
3 commentsread comments
1 2 3 4 5
x 5
add to favorites
launch autoscroll
font size
0
reset
how to read this tab
guitar tuner
Autoscroll
slow
fast
+/-
esc
set tempo
stop
Help us to improve Ultimate-Guitar.com Take our survey!
×
Author
!!!!READ THIS MESSAGE FIRST! VERY IMPORTANT☻☻☻
HELLO, THIS IS GRICH26. I'VE HAD REQUESTS TO DO THIS TAB AND I THOUGHT WHY NOT. ITS NOT
PERCENT CORRECT BUT ITS CLOSE. IF YOU WANT A DEMONSTATION CHECK OUT MY COVER OF THIS.

YOUTUBE ACCOUNT ITS YOUTUBE.COM/GRICH26 (COPY AND PASTE AND U WILL FIND THE COVER
http://www.youtube.com/watch?v=EAA4OZPHdJQ&feature=channel_page(copy in url)

h  hammer-on
+  harmonic

GUITAR TUNING: ½ step down drop D aka Db Ab Db Gb Bb Eb(if troubled, Its the same tuning
Down With the Sickness. Look that up if you are troubled)

Repeat 3x
e|-------------------------------------------------------------|
B|--------------------------------------5--3-------------------|
G|-----------7-----------7-----------7--------5--4-----Repeat--|
D|-----4--5--------4--5--------4--5----------------------3x----|
A|-------------------------------------------------------------|
D|-------------------------------------------------------------|

e|------------------------------------------------------------------------------------|
B|------------------------------------------------------------------------------------|
G|-----------7-----------7-----------7--7---------------------------------------------|
D|-----4--5--------4--5--------4--5-----5---------------------------------------------|
A|------------------------------------------------------------------------------------|
D|------------------------------------------------------------------------------------|

(play this part after he says) "I've gone days without food, I've went weeks without 
Keeping this in"
e|---------------------------------------------------------------------------------|
B|---------------------------------------------------------------------------------|
G|---------------------------------------------------------------------------------|
D|---0------------5-----4---4------------------------------------------------------|
A|---0------------5-----4---4------------------------------------------------------|
D|---0------------5-----4---4------------------------------------------------------|

Repeat 2x
e|------------------------------------------------------------------------------------|
B|------------------------------------------------------------------------------------|
G|----------------5-------------------------repeat------------------------------------|
D|---2------------5---------0-----------------2x--------------------------------------|
A|---2------------3---------0---------------------------------------------------------|
D|---2----------------------0---------------------------------------------------------|

e|----------------------------------------------------------------------------------|
B|----------------------------------------------------------------------------------|
G|---5---pick-----------------------------------------------------------------------|
D|---5----fast----------------------------------------------------------------------|
A|---3-----12x----------------------------------------------------------------------|
D|----------------------------------------------------------------------------------|
              h           h
e|---------------------------------------------------|
B|---------------------------------------------------|
G|---------------------------------------------------|
D|-------4--4-5-----4---4-5-----4---4-5-7-5-4-5-4-0--|
A|--------------3-3---3------------------------------|
D|---2-2---2----------------0-0---0------------------|

              h           h
e|------------------------------------------|
B|------------------------------------------|
G|------------------------------------------|
D|-------4--4-5-----4---4-5----4-4-5-7-7-9--|
A|--------------3-3---3---------------------|
D|---2-2---2--------------------------------|
              h           h
e|---------------------------------------------------|
B|---------------------------------------------------|
G|---------------------------------------------------|
D|-------4--4-5-----4---4-5-----4---4-5-7-5-4-5-4-0--|
A|--------------3-3---3------------------------------|
D|---2-2---2----------------0-0---0------------------|

              h           h                    + (harmonic) play 6 times fast
e|--------------------------------------------------|
B|--------------------------------------------------|
G|--------------------------------------------------|
D|-------4--4-5-----4---4-5----4-4-5-7-7-9-----(5)--|
A|--------------3-3---3-----------------------------|
D|---2-2---2----------------------------------------|

e|-------------------------------------------------------------------------------------|
B|-------------------------------------------------------------------------------------|
G|------------------------5---------5--------------------------------------------------|
D|---2----5----0-----5----5----5----5----0---------------------------------------------|
A|---2----5----0-----5----3----5----3----0---------------------------------------------|
D|---2----5----0-----5---------5---------0---------------------------------------------|

e|------------------------------------------------------------------------------------|
B|------------------------------------------------------------------------------------|
G|------------------------5-----------------------------------------------------------|
D|---2----5----0-----5----5----5----0-------------------------------------------------|
A|---2----5----0-----5----3----5----0-------------------------------------------------|
D|---2----5----0-----5---------5----0-------------------------------------------------|

             h           h
e|---------------------------------------------------|
B|---------------------------------------------------|
G|---------------------------------------------------|
D|-------4--4-5-----4---4-5-----4---4-5-7-5-4-5-4-0--|
A|--------------3-3---3------------------------------|
D|---2-2---2----------------0-0---0------------------|

              h           h
e|------------------------------------------|
B|------------------------------------------|
G|------------------------------------------|
D|-------4--4-5-----4---4-5----4-4-5-7-7-9--|
A|--------------3-3---3---------------------|
D|---2-2---2--------------------------------|

              h           h
e|---------------------------------------------------|
B|---------------------------------------------------|
G|---------------------------------------------------|
D|-------4--4-5-----4---4-5-----4---4-5-7-5-4-5-4-0--|
A|--------------3-3---3------------------------------|
D|---2-2---2----------------0-0---0------------------|

                                                                    +harmonic
              h           h                                         (6x) fast
e|-----------------------------------------------------------------------|
B|-----------------------------------------------------------------------|
G|-----------------------------------------------------------------------|
D|-------4--4-5-----4---4-5----4-4-5-7-7-9-4-4-5-7-7-9-4-4-5-7-7-9--(5)--|
A|--------------3-3---3--------------------------------------------------|
D|---2-2---2-------------------------------------------------------------|

e|-------------------------------------------------------------------------------------|
B|-------------------------------------------------------------------------------------|
G|------------------------5---------5--------------------------------------------------|
D|---2----5----0-----5----5----5----5----0---------------------------------------------|
A|---2----5----0-----5----3----5----3----0---------------------------------------------|
D|---2----5----0-----5---------5---------0---------------------------------------------|

e|------------------------------------------------------------------------------------|
B|------------------------------------------------------------------------------------|
G|------------------------5-----------------------------------------------------------|
D|---2----5----0-----5----5----5----0-------------------------------------------------|
A|---2----5----0-----5----3----5----0-------------------------------------------------|
D|---2----5----0-----5---------5----0-------------------------------------------------|

(play this part after he says) "I've gone days without food, I've went weeks without 
Keeping this in"
e|---------------------------------------------------------------------------------|
B|---------------------------------------------------------------------------------|
G|---------------------------------------------------------------------------------|
D|---0------------5-----4---4------------------------------------------------------|
A|---0------------5-----4---4------------------------------------------------------|
D|---0------------5-----4---4------------------------------------------------------|

Repeat 2x
e|-------------------------------------------------------------------------------------|
B|-------------------------------------------------------------------------------------|
G|----------------5-----------7----------------repeat----------------------------------|
D|---2------------5-----------7------------------2x------------------------------------|
A|---2------------3-----------5--------------------------------------------------------|
D|---2---------------------------------------------------------------------------------|

REPEAT 4x
e|---------------------------------------------------------------------------------|
B|--------8-10-8------------8-10-8---------8-10-8------------8-10-8--------repeat--|
G|---9-11--------11----9-11--------11----9--------11----9-11--------11-------4x----|
D|---------------------------------------------------------------------------------|
A|---------------------------------------------------------------------------------|
D|---------------------------------------------------------------------------------|

Palm Mute this Part
Pick fast 18x
e|----------------------------------------------------------------------------------|
B|----------------------------------------------------------------------------------|
G|---7---pick-----------------------------------------------------------------------|
D|---7----fast----------------------------------------------------------------------|
A|---5-----18x----------------------------------------------------------------------|
D|----------------------------------------------------------------------------------|

e|-------------------------------------------------------------------------------------|
B|-------------------------------------------------------------------------------------|
G|------------------------5---------5--------------------------------------------------|
D|---2----5----0-----5----5----5----5----0---------------------------------------------|
A|---2----5----0-----5----3----5----3----0---------------------------------------------|
D|---2----5----0-----5---------5---------0---------------------------------------------|

e|------------------------------------------------------------------------------------|
B|------------------------------------------------------------------------------------|
G|------------------------5-----------------------------------------------------------|
D|---2----5----0-----5----5----5----0-------------------------------------------------|
A|---2----5----0-----5----3----5----0-------------------------------------------------|
D|---2----5----0-----5---------5----0-------------------------------------------------|

e|-------------------------------------------------------------------------------------|
B|-------------------------------------------------------------------------------------|
G|------------------------5---------5--------------------------------------------------|
D|---2----5----0-----5----5----5----5----0---------------------------------------------|
A|---2----5----0-----5----3----5----3----0---------------------------------------------|
D|---2----5----0-----5---------5---------0---------------------------------------------|

e|------------------------------------------------------------------------------------|
B|------------------------------------------------------------------------------------|
G|------------------------5-----------------------------------------------------------|
D|---2----5----0-----5----5----5----0-------------------------------------------------|
A|---2----5----0-----5----3----5----0-------------------------------------------------|
D|---2----5----0-----5---------5----0-------------------------------------------------|

Repeat 3x
e|-----------------------------------------------------------------------------|
B|--------------------------------------------------------5--5-----------------|
G|--------------------------------------------------------5--5---------repeat--|
D|--2--2--2--0--2--0--2--2--2--0--2--0--2--2--2--0--2--0--3--3--0--------3x----|
A|--2--2--2--0--2--0--2--2--2--0--2--0--2--2--2--0--2--0--------0--------------|
D|--2--2--2--0--2--0--2--2--2--0--2--0--2--2--2--0--2--0--------0--------------|


e|--------------------------------------------------------------------------------------------|
B|--------------------------------------------------------5--5-----5--5-----5--5--------------|
G|--------------------------------------------------------5--5-----5--5-----5--5--------------|
D|--2--2--2--0--2--0--2--2--2--0--2--0--2--2--2--0--2--0--3--3--5--3--3--5--3--3--0--2--2--2--|
A|--2--2--2--0--2--0--2--2--2--0--2--0--2--2--2--0--2--0--------5--------5--------0--2--2--2--|
D|--2--2--2--0--2--0--2--2--2--0--2--0--2--2--2--0--2--0--------5--------5--------0--2--2--2--|
Suggest correction
comments
print report bad tab
3 comments total.
0 reply
guitarmack 10 Jul 02, 2009 08:40 PM

5* dude. One thing i figured out in the intro is that you can also play the bass in the beginning if you put it to clean. Just play what you did except open G string instead of 5th fret D, and play the bass notes ( 2nd fret E, 3rd fret A, Open E) and its awesome

0 reply
guitarmack 10 Jul 02, 2009 08:42 PM

oops i also meant to say instead of 7th fret G play 2nd fret B

0 reply
Shinygirl 16 Jul 05, 2010 09:09 PM

the link that you've pasted with your video doesn't work because the video has been set to private

guest
You may want to rate the tab now too:
select rating
Wanna post a correction for this tab? Suggest correction