Oops, an error
Loading. Please wait.

Apologize Bass Tab

version 1
version 1

Whole song

Interactive

10,237 views 1 this week
no commentswrite comment
1 2 3 4 5
accurate
x 6
add to favorites
launch autoscroll
font size
0
reset
guitar tuner
Tab Pro tools
  • play this tab
  • loop segment
  • change instrument
  • show fretboard
  • metronome
×
Best way to learn
"Apologize"
Autoscroll
slow
fast
+/-
esc
set tempo
stop
Pretty sure this is right
Email if not

Standard
EADGBe


Bass comes in at 0:15

INTRO/VERSE
e-------------------------/   [x5]
B-------------------------/
G-------------------------/
D-------------------------/
A-----------4-------------/
E----6---2-----4----------/

CHORUS
e-------------------------------------------------/  [x2]
B-------------------------------------------------/
G-------------------------------------------------/
D-------------------------------------------------/
A--------------------44444444---------------------/
E-66666666-22222222-----------44444444------------/

VERSE 2
e-------------------------------------/     [x4]
B-------------------------------------/
G-------------------------------------/
D-------------------------------------/
A----------------44-44----------------/
E--66-66--22-22---------44-44---------/

CHORUS
e-------------------------------------------------/ ONE TIME
B-------------------------------------------------/
G-------------------------------------------------/
D-------------------------------------------------/
A--------------------44444444---------------------/
E--66666666-22222222----------44444444------------/


e-----------------------------------------/  [x3]
B-----------------------------------------/
G-----------------------------------------/
D-----------------------------------------/
A---------------4444----------------------/
E--6666-2222-22------4444-44--------------/


e-------------------------------------------/
B-------------------------------------------/
G-------------------------------------------/
D-------------------------------------------/
A---------------44444444--------------------/
E--6666-2222-22----------44444444-----------/

Thanks
Look for more
comments
print report bad tab
I want to post or [tab]
guest
You may want to rate the tab now too:
select rating
Please do not post tabs as comments. Select "correction" instead!