Oops, an error
Loading. Please wait.

Apologize Tab

version 1
version 1

Intro

Whole song

Interactive

79,691 views 27 this week
7 commentsread comments
1 2 3 4 5
accurate
x 7
add to favorites
launch autoscroll
font size
0
reset
how to read this tab
guitar tuner
Tab Pro tools
  • play this tab
  • loop segment
  • change instrument
  • show fretboard
  • metronome
×
Best way to learn
"Apologize"
Autoscroll
slow
fast
+/-
esc
set tempo
stop
Contributor
Song: Apologize (OneRepublic Cover)
Artist: Silverstein
Album: Punk Goes Pop 2

Tuning: Standard (EADGBE)

Intro/Verse

E||--------------------------------------------------------------------|
B||---------2---------------2----------------4---------------4---------|
G||-----3-----3---3----------------------6-----6---6-----6-----5---5---|
D||---3---3-----3-------4-----4---4----6---6-----6-----6---6-----6-----| X6
A||-1-----------------4---4-----4----4---------------------------------|
E||-----------------2--------------------------------4-----------------|

Chorus

Figure out Rhythm, it's quite simple
E||------------------------|
B||------------------------|
G||-3-----------6----------|
D||-3-----4-----6-----6----| 2 times
A||-1-----4-----4-----6----|
E||-------2-----------4----|
]
Verse

E||--------------------------------------------------------------------|
B||---------2---------------2----------------4---------------4---------|
G||-----3-----3---3----------------------6-----6---6-----6-----5---5---|
D||---3---3-----3-------4-----4---4----6---6-----6-----6---6-----6-----| X5
A||-1-----------------4---4-----4----4---------------------------------|
E||-----------------2--------------------------------4-----------------|

Chorus

Same Rhythm as First Chorus
E||------------------------|
B||------------------------|
G||-3-----------6----------|
D||-3-----4-----6-----6----| 2 times
A||-1-----4-----4-----6----|
E||-------2-----------4----|

Bridge

Again, Rhythm is Simple

E||------------------------|
B||------------------------|
G||-3----------6-----------|
D||-3---4--4---6---6--6----| 4 times
A||-1---4--4---4---6--6----|
E||-----2--2-------4--4----|

Ending Chorus

Same Rhythm as First Chorus
E||------------------------|
B||------------------------|
G||-3-----------6----------|
D||-3-----4-----6-----6----| 4 times
A||-1-----4-----4-----6----|
E||-------2-----------4----|

Outro

E||----------------------------------4-----|
B||---------2---------------2--------4-----|
G||-----3-----3---3------------------6-----|
D||---3---3-----3-------4-----4---4--6-----|
A||-1-----------------4---4-----4----4-----|
E||-----------------2----------------------|



comments
print report bad tab
7 comments total. Showing first comments.
+3 reply
THEguitarGOD789 wrote on April 15 2009, 08:49 pm

great tab dude. but where's the lead for the chorus?

0 reply
kingfootpie wrote on October 28 2010, 12:10 am

ok so its actually like this:

Tuning: Drop D (DAdGBe)
Capo: 4th Fret

e|--------------------------------------------------------------------|
B|------------------------------------------0-------------------------|
G|---------2----------------2-----------2-----2---2-(2)-----2h1---1----|
d|-----0-----0---0------0-----0---0---2---2-----2------2-------2---2--|
A|---4---4-----4------4---4-----4---0--------------------0------------|
D|-4----------------0-------------------------------------------------|

0 reply
kingfootpie wrote on October 28 2010, 12:17 am

and chorus:

e|-------------11----------------------11----------------------11-----------------------------------|
B|-13-14-13-14----14-13-14-13-14-13-14----14-13-14-13-14-13-14----14-13-14-13-14-13-11-13-14-13-14--|
G|--------------------------------------------------------------------------------------------------|
D|--------------------------------------------------------------------------------------------------|
A|--------------------------------------------------------------------------------------------------|
E|--------------------------------------------------------------------------------------------------|

I want to post or [tab]
guest
You may want to rate the tab now too:
select rating
Please do not post tabs as comments. Select "correction" instead!