Oops, an error
Loading. Please wait.

Apologize Tab

version 3
version 3

Whole song

Interactive

12,544 views 1 this week
1 commentread comment
1 2 3 4 5
accurate
x 3
add to favorites
launch autoscroll
font size
0
reset
how to read this tab
guitar tuner
Autoscroll
slow
fast
+/-
esc
set tempo
stop
Help us to improve Ultimate-Guitar.com Take our survey!
×
Contributor
Luke N3 103
-------------------------------------------------------------------------------
                APOLOGIZE - Silverstein (One Republic cover)
-------------------------------------------------------------------------------
From the compilation Punk goes pop 2
Tabbed by: Luke N3
Email: lukenicholls@hotmail.co.uk

Tuning:Standard (EADGBE)

Intro/Verse


e|-------------------------------------------------------------------------|
B|---------2------------------2----------------4-------------------4-------|
G|-----3-----3---3-------------------------6------6----6-------6----5---5--| X6
D|---3---3-----3-------4--------4---4----6---6-------6-------6---6----6----|
A|-1-----------------4---4--------4----4-----------------------------------|
E|-----------------2--------------------------------------4----------------|

Chorus (Rhythm)

e|---------------------------------------------------------------------------|
B|---------------------------------------------------------------------------|
G|-33333333--------------66666666--------------------------------------------|
D|-33333333---44444444---66666666---66666666---------------------------------|
A|-11111111---44444444---44444444---66666666---------------------------------|
E|------------22222222--------------44444444---------------------------------|

Chorus (Lead)

e|--------------16----------------------------------------------16-----------|
B|-13-14-13-14-----14-13-14-13-14-13-14-16-14-13-14-13-14-13-14----14-13-14--|
G|---------------------------------------------------------------------------|
D|---------------------------------------------------------------------------|
A|---------------------------------------------------------------------------|
E|---------------------------------------------------------------------------|

e|---------------------------------------------------------------------------|
B|-13-14-13-14-13------------------------------------------------------------|
G|----------------15-13-15---------------------------------------------------| X2
D|---------------------------------------------------------------------------|
A|---------------------------------------------------------------------------|
E|---------------------------------------------------------------------------|

(Verse)

(Chorus)

Breakdown:
e|---------------------------------------------------------------------------|
B|---------------------------------------------------------------------------|
G|-3333---------6666-------------8/10-10-11-11-13-13-11-11-10-11-10-11-1010--|
D|-3333-4444-44-6666-6666-66-----x-x--x--x--x---x--x--x-x--x--x--x--x--x--x--|  X2
A|-1111-4444-44-4444-6666-66-----6/8--8--9--9--11-11--9-9--8--9--8--9--8--8--|
E|------2222-22------4444-44-------------------------------------------------|

e|---------------------------------------------------------------------------|
B|---------------------------------------------------------------------------|
G|-6/8-8--10-10-11-11-10-10-8--8--6--8--6--6--8/10-10-11-11-13-13--10-10-11--|
D|-x-x-x--x--x--x--x--x--x--x--x--x--x--x--x---x---x--x--x--x---x---x--x--x--|
A|-4/6-6--8--8--9--9--8--8--6--6--4--6--4--4--6/8--8--9--9--11--11--8--8--9--|
E|---------------------------------------------------------------------------|

e|---------------------------------------------------------------------------|
B|---------------------------------------------------------------------------|
G|-11-10-10------------------------------------------------------------------|
D|-x--x--x-----------333-444-666---------------------------------------------|
A|-9--8--8---444-666---------------------------------------------------------|
E|---------------------------------------------------------------------------|

Chorus X2

Ending
e|---------------------------------------------------------------------------|
B|---------2-------------2---------6-----------------------------------------|
G|-----3----3----------------------6-----------------------------------------|
D|---3---3----3------4-----4---4---6-----------------------------------------|
A|-1-----------1---4---4-----4-----4-----------------------------------------|
E|---------------2-----------------------------------------------------------|

Thanks and great song :)

| /  slide up
| \  slide down
| h  hammer-on
| p  pull-off
| ~  vibrato
| +  harmonic
| x  Mute note
===============================================================================
Suggest correction new What's this?
You can suggest a correction to this tab. Community and Mods will review your correction and vote to approve or reject it.
comments
We did not receive enough feedback on this tab! Please rate:
print report bad tab
1 2 3 4 5
1 comment total.
0 reply
Ninja Jeff 23 wrote on February 24 2010, 02:02 pm

u have 2 change the breakdown but good job

guest
You may want to rate the tab now too:
select rating
Please do not post tabs as comments. Select "correction" instead!