Oops, an error
Loading. Please wait.

Apologize Tab

version 4
version 4

Whole song

Interactive

47,206 views 3 this week
9 commentsread comments
1 2 3 4 5
accurate
x 11
add to favorites
launch autoscroll
font size
0
reset
how to read this tab
guitar tuner
Autoscroll
slow
fast
+/-
esc
set tempo
stop
Help us to improve Ultimate-Guitar.com Take our survey!
×
Author
Tabbers playing skills
advanced +
Tuning:Standard
Tabbed By: Cjb2293

Intro

Lead
e|----------------------------------------------------------------------|
B|---------2----------------2-----------------4-------------------------|
G|-----3-----3---3------------------------6------6---6---------6p5---5--|X2
D|---3---3-----3-------4------4---4-----6---6------6---------6-----6----|
A|-1-----------------4---4------4-----4--------------------4------------|
E|-----------------2-------------------------------------4--------------|

Verse 1

Lead
e|----------------------------------------------------------------------|
B|---------2----------------2-----------------4-------------------------|
G|-----3-----3---3------------------------6------6---6---------6p5---5--|X4
D|---3---3-----3-------4------4---4-----6---6------6---------6-----6----|
A|-1-----------------4---4------4-----4--------------------4------------|
E|-----------------2-------------------------------------4--------------|

Rhythm (comes in with snare drum)
e|-------------------------------------------------------------|
B|-------------------------------------------------------------|
G|-33333333--------------66666666------------------------------|X2
D|-33333333---44444444---66666666---66666666-------------------|
A|-11111111---44444444---44444444---66666666-------------------|
E|------------22222222--------------44444444-------------------|
p.m........   ........   ........   ........

CHORUS
Rhythm
e|----------------------------------------------------------|
B|----------------------------------------------------------|
G|-33333333--------------66666666---------------------------|X2
D|-33333333---44444444---66666666---66666666----------------|
A|-11111111---44444444---44444444---66666666----------------|
E|------------22222222--------------44444444----------------|

Lead
e|-------------16----------------------------------------------16----------|
B|-13-14-13-14----14-13-14-13-14-13-14-16-14-13-14-13-14-13-14----14-13-14-|
G|-------------------------------------------------------------------------|
D|-------------------------------------------------------------------------|
A|-------------------------------------------------------------------------|
E|-------------------------------------------------------------------------|

e|----------------------------|
B|-13-14-13-14-14-13----------|
G|----------------15-13-15----|X2
D|----------------------------|
A|----------------------------|
E|----------------------------|


VERSE 2

Lead
e|----------------------------------------------------------------------|
B|---------2----------------2-----------------4-------------------------|
G|-----3-----3---3------------------------6------6---6---------6p5---5--|X5
D|---3---3-----3-------4------4---4-----6---6------6---------6-----6----|
A|-1-----------------4---4------4-----4--------------------4------------|
E|-----------------2-------------------------------------4--------------|

Rhythm                                    V(Skip this last time through)
e|-------------------------------------------------------------|
B|-------------------------------------------------------------|
G|-3--3333333----------------6--6666666------------------------|X4
D|-3--3333333---4--4444444---6--6666666---6--6666666-----------|
A|-1--1111111---4--4444444---4--4444444---6--6666666-----------|
E|--------------2--2222222----------------4--4444444-----------|
p.m   .......      .......      .......      .......


Bridge
Both Guitars
e|-----------------------------|
B|-----------------------------|X2
G|-3333---------6666-----------|
D|-3333-4444-44-6666-6666-66---|
A|-1111-4444-44-4444-6666-66---|
E|------2222-22------4444-44---|

rhythm
e|-----------------------------|
B|-----------------------------|X2
G|-3333---------6666-----------|
D|-3333-4444-44-6666-6666-66---|
A|-1111-4444-44-4444-6666-66---|
E|------2222-22------4444-44---|

Lead
e|----------------------------------------------|
B|----------------------------------------------|
G|-8/10--10/11-11/13-13/11--11/10--10/11--11/10~|
D|-x-x---x--x--x--x--x--x---x--x---x--x---x--x--|
A|-6/8---8-/9--9-/11-11/9---9-/8---8-/9---9-/8~~|
E|----------------------------------------------|

e|--------------------------------------|
B|--------------------------------------|
G|-6/8-8/10-10/11-11/10-10/8--8/6--8/6~-|
D|-x-x-x-x--x--x--x--x--x--x--x-x--x-x--|
A|-4/6-6/8--8-/9--9-/8--8-/6--6/4--6/4~-|
E|--------------------------------------|

e|----------------------------------------------|
B|----------------------------------------------|
G|-8/10--10/11-11/13-13/11--11/10--10/11--11/10~|
D|-x-x---x--x--x--x--x--x---x--x---x--x---x--x--|
A|-6/8---8-/9--9-/11-11/9---9-/8---8-/9---9-/8~~|
E|----------------------------------------------|

e|------------------------------------------------------|
B|------------------------------------------------------|
G|-6-6-6--8-8-8--10-10-10--11-11-11--13-13-13-----------|
D|-x-x-x--x-x-x--x--x--x---x--x--x---x--x--x------------|
A|-4-4-4--6-6-6--8--8--8---9--9--9---11-11-11-----------|
E|------------------------------------------------------|

CHORUS X2
Rhythm
e|----------------------------------------------------------|
B|----------------------------------------------------------|
G|-33333333--------------66666666---------------------------|X2
D|-33333333---44444444---66666666---66666666----------------|
A|-11111111---44444444---44444444---66666666----------------|
E|------------22222222--------------44444444----------------|

Lead
e|-------------16----------------------------------------------16----------|
B|-13-14-13-14----14-13-14-13-14-13-14-16-14-13-14-13-14-13-14----14-13-14-|
G|-------------------------------------------------------------------------|
D|-------------------------------------------------------------------------|
A|-------------------------------------------------------------------------|
E|-------------------------------------------------------------------------|

e|----------------------------|
B|-13-14-13-14-14-13----------|
G|----------------15-13-15----|X2
D|----------------------------|
A|----------------------------|
E|----------------------------|



Ending
e|--------------------------------------------|
B|---------2-------------2---------6----------|
G|-----3----3----------------------6----------|
D|---3---3----3------4-----4---4---6----------|
A|-1-----------1---4---4-----4-----4----------|
E|---------------2----------------------------|
Suggest correction
comments
print report bad tab
9 comments total. Showing first comments.
+1 reply
Guitar4life14 116 wrote on July 24 2009, 07:01 pm

fantastic!!! 5 stars

0 reply
SorryImAwesome. 370 wrote on September 22 2009, 03:33 pm

They play it in Drop C#, but this version's sweet.

-1 reply
LightningLogan 146 wrote on November 14 2009, 01:41 pm

The intro is wrong, it goes like

e|-------------------------------------------0------------------------|
B|---------3----------------3------------3-----3---3--------3p2---2---|
G|-----0-----0---0------0-----0---0----2---2-----2--------2-----2---2-|
D|---4---4-----4------4---4-----4----0------------------2-------------|
A|-2--------------------------------------------------0---------------|
E|------------------3-------------------------------------------------|

guest
You may want to rate the tab now too:
select rating
Wanna post a correction for this tab? Suggest correction