Oops, an error
Loading. Please wait.

Aquamarine tab

355 views 6 this week
2 commentsread comments
1 2 3 4 5
x 3
add to favorites
×
Save as Personal and add changes to this tab that will be seen only by you. Learn more ›
×
You can save this tab as Personal to edit and correct it or add notes. All changes will be seen only by you. Learn more »
launch autoscroll
font size
0
reset
how to read this tab
guitar tuner
edit
Autoscroll
slow
fast
+/-
esc
set tempo
stop
Tabbed by: Joshua Garcia (joshuag523@aol.com)

Tabs for the song: Aquamarine by Silverstein
Please rate and let me know if you have any corrections. Thank you.


Tuning: Drop C (C G C F A D)


[Intro]
Guitar 1:
D||------------------------------------|---------------------------------------|
A||------------------10--------9-------|---------------------------------------|
F||--9----------9----9---------9----9--|--7--------------/9---7---6------------|
C||--7--------7------7---------7-------|--7-------------------------9---7---9--|
G||--0---------------9---------7-------|---------------------------------------|
C||--0---------------------------------|---------------------------------------|


D||------------------------------------|-------7-----------------------------------------|
A||------------------10--------9-------|------------10-----------------------------------|
F||--9----------9----9---------9----9--|--7---------------9--------/9---7---6------------|
C||--7--------7------7---------7-------|--7-----------------------------------9---7---9--|
G||--0---------------9---------7-------|-------------------------------------------------|
C||--0---------------------------------|-------------------------------------------------|


D||-----|
A||-----|
F||-----|
C||--7--|
G||-----|
C||-----|


Guitar 2:
D||------------------------------------|---------------------------------------|
A||------------------10--------9-------|------------------10--------9----------|
F||--9---------------9---------9-------|--9---------------9---------9----------|
C||--7---------------7---------7-------|--7---------------7---------7----------|
G||--0---------------9---------7-------|--0---------------9---------7----------|
C||--0---------------------------------|--0------------------------------------|


D||------------------------------------|---------------------------------------|
A||------------------10--------9-------|------------------10--------9----------|
F||--9---------------9---------9-------|--9---------------9---------9----------|
C||--7---------------7---------7-------|--7---------------7---------7----------|
G||--0---------------9---------7-------|--0---------------9---------7----------|
C||--0---------------------------------|--0------------------------------------|


D||------|
A||--10--|
F||--9---|
C||--7---|
G||--0---|
C||--0---|



Guitar 1/2:
D||--------------------------|
A||--------------------------|
F||--------------------------|
C||--4------2------7------0--|
G||--4------2------7------0--|
C||--4------2------7------0--|



[Verse]
Guitar 1:
D||-------------------------------------------------------------------------------------|
A||-------------------------------------------------------------------------------------|
F||--14---14-14---14-14-14-9---9-9---9-9-9-18---18-18---18-18-18-16---16-16---13-14-13--|
C||--x----x--x----x--x--x--x---x-x---x-x-x-x----x--x----x--x--x--x----x--x----x--x--x---|
G||--12---12-12---12-12-12-7---7-7---7-7-7-16---16-16---16-16-16-14---14-14---13-14-13--|
C||-------------------------------------------------------------------------------------|


D||----------------------------------------------------------------|
A||----------------------------------------------------------------|
F||--11---11-11---11-11-11-19---19-19-18---18-18-16---16-16--------|
C||--x----x--x----x--x--x--x----x--x--x----x--x--x----x--x--0-0-0--| [x2]
G||--9----9--9----9--9--9--17---17-17-16---16-16-14---14-14-0-0-0--|
C||---------------------------------------------------------0-0-0--|
                                                            . . .

Guitar 2:
D||--------------------------------------------------------------------|
A||--------------------------------------------------------------------|
F||------------------9---9-9---9-9-9-9---9-9----9-9-9-9---9-9----------|
C||--7---7-7---7-7-7-7---7-7---7-7-7-7---7-7----7-7-7-7---7-7---6-7-6--|
G||--4---4-4---4-4-4-5---5-5---5-5-5-5---5-5----5-5-5-5---5-5----------|
C||--4---4-4---4-4-4---------------------------------------------------|


D||-------------------------------------------------|
A||-------------------------------------------------|
F||------------------7---7-7-6---6-6-4---4-4--------|
C||--7---7-7---7-7-7-7---7-7-7---7-7-2---2-2-0-0-0--| [x2]
G||--4---4-4---4-4-4-5---5-5-5---5-5-2---2-2-0-0-0--|
C||--4---4-4---4-4-4-------------------------0-0-0--|
                                             . . .



[Pre-Chorus]
Guitar 1:
D||-----------------------------------|-----------------------------------|
A||-----------------------------------|-----------------------------------|
F||-----------------------------------|-----------------------------------|
C||--0---0-0-0-0-0-0-0-0-0-0-0-0-0-2--|--0---0-0-0-0-0-0-0-0-0-0-0-0-0-2--|
G||--0---0-0-0-0-0-0-0-0-0-0-0-0-0-2--|--0---0-0-0-0-0-0-0-0-0-0-0-0-0-2--|
C||--0---0-0-0-0-0-0-0-0-0-0-0-0-0-2--|--0---0-0-0-0-0-0-0-0-0-0-0-0-0-2--|
           . . . . . . . . . . . .             . . . . . . . . . . . .

D||-----------------------------------|-----------------------------------|
A||-----------------------------------|-----------------------------------|
F||-----------------------------------|-----------------------------------|
C||--0---0-0-0-0-0-0-0-0-0-0-0-0-0-2--|--0---0-0-0-0-0-0-0-0-0-0-0-0-0-0--|
G||--0---0-0-0-0-0-0-0-0-0-0-0-0-0-2--|--0---0-0-0-0-0-0-0-0-0-0-0-0-0-0--|
C||--0---0-0-0-0-0-0-0-0-0-0-0-0-0-2--|--0---0-0-0-0-0-0-0-0-0-0-0-0-0-0--|
           . . . . . . . . . . . .             . . . . . . . . . . . . .

Guitar 2:
D||-----------------------------------|-----------------------------------|
A||-----------------------------------|------------10----9----10----------|
F||-----------------------------------|------------9-----9----9-----------|
C||-----------------------------------|------------7-----7----7-----------|
G||-----------------------------------|-----------------------------------|
C||-----------------------------------|-----------------------------------|


D||-----------------------------------|-----------------------------------|
A||-----------------------------------|------------10----9----10----------|
F||-----------------------------------|------------9-----9----9-----------|
C||-----------------------------------|------------7-----7----7-----------|
G||-----------------------------------|-----------------------------------|
C||-----------------------------------|-----------------------------------|



[Chorus]
Guitar 1:
D||-------------------------------------------------------------------------------------------|
A||-------------------------------------------------------------------------------------------|
F||--11---11-11---11-11-11-11---11-11---13-13-13-14---14-14---14-14-14-19---19-19-18---18-18--|
C||--x----x--x----x--x--x--x----x--x----x--x--x--x----x--x----x--x--x--x----x--x--x----x--x---|
G||--9----9--9----9--9--9--9----9--9----11-11-11-12---12-12---12-12-12-17---12-17-16---16-16--|
C||-------------------------------------------------------------------------------------------|


D||-------------------------------------------------------------------------------------------|
A||-------------------------------------------------------------------------------------------|
F||--11---11-11---11-11-11-9----9--9----9--9--9--18---18-18---18-18-18-14---14-14-13---13-13--|
C||--x----x--x----x--x--x--x----x--x----x--x--x--x----x--x----x--x--x--x----x--x--x----x--x---|
G||--9----9--9----9--9--9--7----7--7----7--7--7--16---16-16---16-16-16-12---12-12-11---11-11--|
C||-------------------------------------------------------------------------------------------|


D||-------------------------------------------------------------------------------------------|
A||-------------------------------------------------------------------------------------------|
F||--18---18-18---18-18-18-18---18-18---16-16-16-19---19-19---19-19-19-18---18-18---18-18-18--|
C||--x----x--x----x--x--x--x----x--x----x--x--x--x----x--x----x--x--x--x----x--x----x--x--x---|
G||--16---16-16---16-16-16-16---16-16---14-14-14-17---17-17---17-17-17-16---16-16---16-16-16--|
C||-------------------------------------------------------------------------------------------|


D||----------------------------------------------------------------------------------------------|
A||----------------------------------------------------------------------------------------------|
F||--14---14-14---14-14-14-14---14-14---14-14-14-18---18-18---18-18-18-14---14-14-12---12-12-12--|
C||--x----x--x----x--x--x--x----x--x----x--x--x--x----x--x----x--x--x--x----x--x--x----x--x--x---|
G||--12---12-12---12-12-12-12---12-12---12-12-12-16---16-16---16-16-16-12---12-12-11---11-11-11--|
C||----------------------------------------------------------------------------------------------|


Guitar 2:
D||-------------------------------------------------------------------------------------------|
A||-------------------------------------------------------------------------------------------|
F||--11---11-11---11-11-11-11---11-11---13-13-13-14---14-14---14-14-14-14---14-14---14-14-14--|
C||--11---11-11---11-11-11-11---11-11---14-14-14-14---14-14---14-14-14-14---14-14---14-14-14--|
G||--9----9--9----9--9--9--9----9--9----11-11-11-12---12-12---12-12-12-12---12-12---12-12-12--|
C||-------------------------------------------------------------------------------------------|


D||-------------------------------------------------------------------------------------------|
A||-------------------------------------------------------------------------------------------|
F||----------------------------------------------10---10-10---10-10-10-10---10-10-------------|
C||--16---16-16---16-16-16-16---16-16---16-16-16-11---11-11---11-11-11-11---11-11-------------|
G||--12---12-12---12-12-12-12---12-12---12-12-12-8----8--8----8--8--8--8----8--8---\\pick\\---|
C||--12---12-12---12-12-12-12---12-12---12-12-12------------------------------------\\slide\\-|


D||-------------------------------------------------------------------------------------------|
A||-------------------------------------------------------------------------------------------|
F||--11---11-11---11-11-11-11---11-11---13-13-13-14---14-14---14-14-14-14---14-14---14-14-14--|
C||--11---11-11---11-11-11-11---11-11---14-14-14-14---14-14---14-14-14-14---14-14---14-14-14--|
G||--9----9--9----9--9--9--9----9--9----11-11-11-12---12-12---12-12-12-12---12-12---12-12-12--|
C||-------------------------------------------------------------------------------------------|


D||----------------------------------------------------------------------------------------------|
A||----------------------------------------------------------------------------------------------|
F||--13---13-13---13-13-13-13---13-13---13-13-13-10---10-10---10-10-10-10---10-10---10-10-10-10--|
C||--14---14-14---14-14-14-14---14-14---14-14-14-11---11-11---11-11-11-11---11-11---11-11-11-11--|
G||--12---12-12---12-12-12-12---12-12---12-12-12-8----8--8----8--8--8--8----8--8----8--8--8--8---|
C||----------------------------------------------------------------------------------------------|


Guitar 1/2:
D||--------------------------|
A||--------------------------|
F||--------------------------|
C||--4------2------7------0--|
G||--4------2------7------0--|
C||--4------2------7------0--|



[Verse]
Guitar 1:
D||-------------------------------------------------------------------------------------|
A||-------------------------------------------------------------------------------------|
F||--14---14-14---14-14-14-9---9-9---9-9-9-18---18-18---18-18-18-16---16-16---13-14-13--|
C||--x----x--x----x--x--x--x---x-x---x-x-x-x----x--x----x--x--x--x----x--x----x--x--x---|
G||--12---12-12---12-12-12-7---7-7---7-7-7-16---16-16---16-16-16-14---14-14---13-14-13--|
C||-------------------------------------------------------------------------------------|


D||----------------------------------------------------------------|
A||----------------------------------------------------------------|
F||--11---11-11---11-11-11-19---19-19-18---18-18-16---16-16--------|
C||--x----x--x----x--x--x--x----x--x--x----x--x--x----x--x--0-0-0--| [x2]
G||--9----9--9----9--9--9--17---17-17-16---16-16-14---14-14-0-0-0--|
C||---------------------------------------------------------0-0-0--|
                                                            . . .

Guitar 2:
D||--------------------------------------------------------------------|
A||--------------------------------------------------------------------|
F||------------------9---9-9---9-9-9-9---9-9----9-9-9-9---9-9----------|
C||--7---7-7---7-7-7-7---7-7---7-7-7-7---7-7----7-7-7-7---7-7---6-7-6--|
G||--4---4-4---4-4-4-5---5-5---5-5-5-5---5-5----5-5-5-5---5-5----------|
C||--4---4-4---4-4-4---------------------------------------------------|


D||-------------------------------------------------|
A||-------------------------------------------------|
F||------------------7---7-7-6---6-6-4---4-4--------|
C||--7---7-7---7-7-7-7---7-7-7---7-7-2---2-2-0-0-0--| [x2]
G||--4---4-4---4-4-4-5---5-5-5---5-5-2---2-2-0-0-0--|
C||--4---4-4---4-4-4-------------------------0-0-0--|
                                             . . .



[Pre-Chorus]
Guitar 1:
D||-----------------------------------|-----------------------------------|
A||-----------------------------------|-----------------------------------|
F||-----------------------------------|-----------------------------------|
C||--0---0-0-0-0-0-0-0-0-0-0-0-0-0-2--|--0---0-0-0-0-0-0-0-0-0-0-0-0-0-2--|
G||--0---0-0-0-0-0-0-0-0-0-0-0-0-0-2--|--0---0-0-0-0-0-0-0-0-0-0-0-0-0-2--|
C||--0---0-0-0-0-0-0-0-0-0-0-0-0-0-2--|--0---0-0-0-0-0-0-0-0-0-0-0-0-0-2--|
           . . . . . . . . . . . .             . . . . . . . . . . . .

D||-----------------------------------|-----------------------------------|
A||-----------------------------------|-----------------------------------|
F||-----------------------------------|-----------------------------------|
C||--0---0-0-0-0-0-0-0-0-0-0-0-0-0-2--|--0---0-0-0-0-0-0-0-0-0-0-0-0-0-0--|
G||--0---0-0-0-0-0-0-0-0-0-0-0-0-0-2--|--0---0-0-0-0-0-0-0-0-0-0-0-0-0-0--|
C||--0---0-0-0-0-0-0-0-0-0-0-0-0-0-2--|--0---0-0-0-0-0-0-0-0-0-0-0-0-0-0--|
           . . . . . . . . . . . .             . . . . . . . . . . . . .

Guitar 2:
D||-----------------------------------|-----------------------------------|
A||-----------------------------------|------------10----9----10----------|
F||-----------------------------------|------------9-----9----9-----------|
C||-----------------------------------|------------7-----7----7-----------|
G||-----------------------------------|-----------------------------------|
C||-----------------------------------|-----------------------------------|


D||-----------------------------------|-----------------------------------|
A||-----------------------------------|------------10----9----10----------|
F||-----------------------------------|------------9-----9----9-----------|
C||-----------------------------------|------------7-----7----7-----------|
G||-----------------------------------|-----------------------------------|
C||-----------------------------------|-----------------------------------|



[Chorus]
Guitar 1:
D||-------------------------------------------------------------------------------------------|
A||-------------------------------------------------------------------------------------------|
F||--11---11-11---11-11-11-11---11-11---13-13-13-14---14-14---14-14-14-19---19-19-18---18-18--|
C||--x----x--x----x--x--x--x----x--x----x--x--x--x----x--x----x--x--x--x----x--x--x----x--x---|
G||--9----9--9----9--9--9--9----9--9----11-11-11-12---12-12---12-12-12-17---12-17-16---16-16--|
C||-------------------------------------------------------------------------------------------|


D||-------------------------------------------------------------------------------------------|
A||-------------------------------------------------------------------------------------------|
F||--11---11-11---11-11-11-9----9--9----9--9--9--18---18-18---18-18-18-14---14-14-13---13-13--|
C||--x----x--x----x--x--x--x----x--x----x--x--x--x----x--x----x--x--x--x----x--x--x----x--x---|
G||--9----9--9----9--9--9--7----7--7----7--7--7--16---16-16---16-16-16-12---12-12-11---11-11--|
C||-------------------------------------------------------------------------------------------|


D||-------------------------------------------------------------------------------------------|
A||-------------------------------------------------------------------------------------------|
F||--18---18-18---18-18-18-18---18-18---16-16-16-19---19-19---19-19-19-18---18-18---18-18-18--|
C||--x----x--x----x--x--x--x----x--x----x--x--x--x----x--x----x--x--x--x----x--x----x--x--x---|
G||--16---16-16---16-16-16-16---16-16---14-14-14-17---17-17---17-17-17-16---16-16---16-16-16--|
C||-------------------------------------------------------------------------------------------|


D||----------------------------------------------------------------------------------------------|
A||----------------------------------------------------------------------------------------------|
F||--14---14-14---14-14-14-14---14-14---14-14-14-18---18-18---18-18-18-14---14-14-12---12-12-12--|
C||--x----x--x----x--x--x--x----x--x----x--x--x--x----x--x----x--x--x--x----x--x--x----x--x--x---|
G||--12---12-12---12-12-12-12---12-12---12-12-12-16---16-16---16-16-16-12---12-12-11---11-11-11--|
C||----------------------------------------------------------------------------------------------|


Guitar 2:
D||-------------------------------------------------------------------------------------------|
A||-------------------------------------------------------------------------------------------|
F||--11---11-11---11-11-11-11---11-11---13-13-13-14---14-14---14-14-14-14---14-14---14-14-14--|
C||--11---11-11---11-11-11-11---11-11---14-14-14-14---14-14---14-14-14-14---14-14---14-14-14--|
G||--9----9--9----9--9--9--9----9--9----11-11-11-12---12-12---12-12-12-12---12-12---12-12-12--|
C||-------------------------------------------------------------------------------------------|


D||-------------------------------------------------------------------------------------------|
A||-------------------------------------------------------------------------------------------|
F||----------------------------------------------10---10-10---10-10-10-10---10-10-------------|
C||--16---16-16---16-16-16-16---16-16---16-16-16-11---11-11---11-11-11-11---11-11-------------|
G||--12---12-12---12-12-12-12---12-12---12-12-12-8----8--8----8--8--8--8----8--8---\\pick\\---|
C||--12---12-12---12-12-12-12---12-12---12-12-12------------------------------------\\slide\\-|


D||-------------------------------------------------------------------------------------------|
A||-------------------------------------------------------------------------------------------|
F||--11---11-11---11-11-11-11---11-11---13-13-13-14---14-14---14-14-14-14---14-14---14-14-14--|
C||--11---11-11---11-11-11-11---11-11---14-14-14-14---14-14---14-14-14-14---14-14---14-14-14--|
G||--9----9--9----9--9--9--9----9--9----11-11-11-12---12-12---12-12-12-12---12-12---12-12-12--|
C||-------------------------------------------------------------------------------------------|


D||----------------------------------------------------------------------------------------------|
A||----------------------------------------------------------------------------------------------|
F||--13---13-13---13-13-13-13---13-13---13-13-13-10---10-10---10-10-10-10---10-10---10-10-10-10--|
C||--14---14-14---14-14-14-14---14-14---14-14-14-11---11-11---11-11-11-11---11-11---11-11-11-11--|
G||--12---12-12---12-12-12-12---12-12---12-12-12-8----8--8----8--8--8--8----8--8----8--8--8--8---|
C||----------------------------------------------------------------------------------------------|


Guitar 1/2:
D||--------------------------|
A||--------------------------|
F||--------------------------|
C||--4------2------7------0--|
G||--4------2------7------0--|
C||--4------2------7------0--|



[Bridge]
Guitar 1/2:
D||---------------------------------------------------------------|
A||---------------------------------------------------------------|
F||---------------------------------------------------------------|
C||--2-4---4-4-4-4-4-4-4-4-4-4-4-4-2-4---4-4-4-4-4-4-4-4-4-4-4-4--|
G||--2-4---4-4-4-4-4-4-4-4-4-4-4-4-2-4---4-4-4-4-4-4-4-4-4-4-4-4--|
C||--2-4---4-4-4-4-4-4-4-4-4-4-4-4-2-4---4-4-4-4-4-4-4-4-4-4-4-4--|
           . . . . . . . . . . . .       . . . . . . . . . . . .


D||---------------------------------------------------------------|
A||---------------------------------------------------------------|
F||---------------------------------------------------------------|
C||--2-0---0-0-0-0-0-0-0-0-0-0-0-0-2-0---0-0-0-0-0-0-0-0-0-0-0-0--|
G||--2-0---0-0-0-0-0-0-0-0-0-0-0-0-2-0---0-0-0-0-0-0-0-0-0-0-0-0--|
C||--2-0---0-0-0-0-0-0-0-0-0-0-0-0-2-0---0-0-0-0-0-0-0-0-0-0-0-0--|
           . . . . . . . . . . . .       . . . . . . . . . . . .


Guitar 1:
D||---------------------------------------------------------------|
A||---------------------------------------------------------------|
F||---------------------------------------------------------------|
C||--2-4---4-4-4-4-4-4-4-4-4-4-4-4-2-4---4-4-4-4-4-4-4-4-4-4-4-4--|
G||--2-4---4-4-4-4-4-4-4-4-4-4-4-4-2-4---4-4-4-4-4-4-4-4-4-4-4-4--|
C||--2-4---4-4-4-4-4-4-4-4-4-4-4-4-2-4---4-4-4-4-4-4-4-4-4-4-4-4--|
           . . . . . . . . . . . .       . . . . . . . . . . . .


D||---------------------------------------------------------------|
A||---------------------------------------------------------------|
F||---------------------------------------------------------------|
C||--2-0---0-0-0-0-0-0-0-0-0-0-0-0-2-0---0-0-0-0-0-0-000000000----|
G||--2-0---0-0-0-0-0-0-0-0-0-0-0-0-2-0---0-0-0-0-0-0-000000000----|
C||--2-0---0-0-0-0-0-0-0-0-0-0-0-0-2-0---0-0-0-0-0-0-000000000----|
           . . . . . . . . . . . .       . . . . . . .........


Guitar 2:
D||--------------------------------------|-----------------------------------------------|
A||--7/10----10----10----9----9----9-10--|--7/10-------10----10----10----9----9----9-10--|
F||-------11----11----11---11---11-------|----------11----11----11----11---11---11-------|
C||--------------------------------------|-----------------------------------------------|
G||--------------------------------------|-----------------------------------------------|
C||--------------------------------------|-----------------------------------------------|


D||---------10----10----10----9----9----9-10----12---12-12-12-12-12-12-12-121212121212121212\--|
A||--7/10------10----10----10---10---10------10-10---10-10-10-10-10-10-10-101010101010101010\--|
F||--------------------------------------------------------------------------------------------|
C||--------------------------------------------------------------------------------------------|
G||--------------------------------------------------------------------------------------------|
C||--------------------------------------------------------------------------------------------|



[Breakdown]
Guitar 1/2:
D||---------------------------------------------------------------|
A||---------------------------------------------------------------|
F||---------------------------------------------------------------|
C||--2-4\--------------------------2-4\---------------------------|
G||--2-4\--------------------------2-4\---------------------------|
C||--2-4\--------------------------2-4\---------------------------|


D||---------------------------------------------------------------|
A||---------------------------------------------------------------|
F||---------------------------------------------------------------|
C||--2-0---------------------------2-0----------------------------|
G||--2-0---------------------------2-0----------------------------|
C||--2-0---------------------------2-0----------------------------|


D||---------------|
A||------------'--|
F||------------'--|
C||--2222-2-2--'--|
G||--2222-2-2-----|
C||--2222-2-2-----|


Guitar 1:
D||---------------------------------------------------------------|
A||---------------------------------------------------------------|
F||---------------------------------------------------------------|
C||--2-4\--------------------------2-4\---------------------------|
G||--2-4\--------------------------2-4\---------------------------|
C||--2-4\--------------------------2-4\---------------------------|


D||-------------------------------------------------------------------|
A||-------------------------------------------------------------------|
F||-------------------------------------------------------------------|
C||--2-0---------------------------2-0---0-0-0-0-0-0-0-0-0-0-0-0-0-0--|
G||--2-0---------------------------2-0---0-0-0-0-0-0-0-0-0-0-0-0-0-0--|
C||--2-0---------------------------2-0---0-0-0-0-0-0-0-0-0-0-0-0-0-0--|
                                         . . . . . . . . . . . 


Guitar 2:
D||---------------------------------------------------------------------|
A||---------------------------------------------------------------------|
F||---------------------------------------------------------------------|
C||--7-7-7-7-7-7-7-6-6-6-6-6-7-7-7--7-7-7-7-7-7-7/12-12-12-12-11-12-11--|
G||---------------------------------------------------------------------|
C||---------------------------------------------------------------------|


D||---------------------------------------------------------------------------------|
A||---------------------------------------------------------------------------------|
F||---------------------------------------------------------------------------------|
C||--7-----7-7-7-7-7-6-6-6-6-7-7-7-7-7-7-7-7/9-9-9-9-9/11-11-11-11-11/12-12-12-12~--|
G||---------------------------------------------------------------------------------|
C||---------------------------------------------------------------------------------|



[Interlude]
Guitar 1:
D||------------------------------------|-------7-----------------------------------------|
A||------------------10--------9-------|------------10-----------------------------------|
F||--9----------9----9---------9----9--|--7---------------9--------/9---7---6------------|
C||--7--------7------7---------7-------|--7-----------------------------------9---7---9--|
G||--0---------------9---------7-------|-------------------------------------------------|
C||--0---------------------------------|-------------------------------------------------|


D||-----|
A||-----|
F||-----|
C||--7--|
G||-----|
C||-----|


Guitar 2:
D||------------------------------------|---------------------------------------|
A||------------------10--------9-------|------------------10--------9----------|
F||--9---------------9---------9-------|--9---------------9---------9----------|
C||--7---------------7---------7-------|--7---------------7---------7----------|
G||--0---------------9---------7-------|--0---------------9---------7----------|
C||--0---------------------------------|--0------------------------------------|


D||------|
A||--10--|
F||--9---|
C||--7---|
G||--0---|
C||--0---|



[Chorus / Outro]
Guitar 1:
D||-------------------------------------------------------------------------------------------|
A||-------------------------------------------------------------------------------------------|
F||--11---11-11---11-11-11-11---11-11---13-13-13-14---14-14---14-14-14-19---19-19-18---18-18--|
C||--x----x--x----x--x--x--x----x--x----x--x--x--x----x--x----x--x--x--x----x--x--x----x--x---|
G||--9----9--9----9--9--9--9----9--9----11-11-11-12---12-12---12-12-12-17---12-17-16---16-16--|
C||-------------------------------------------------------------------------------------------|


D||-------------------------------------------------------------------------------------------|
A||-------------------------------------------------------------------------------------------|
F||--11---11-11---11-11-11-9----9--9----9--9--9--18---18-18---18-18-18-14---14-14-13---13-13--|
C||--x----x--x----x--x--x--x----x--x----x--x--x--x----x--x----x--x--x--x----x--x--x----x--x---|
G||--9----9--9----9--9--9--7----7--7----7--7--7--16---16-16---16-16-16-12---12-12-11---11-11--|
C||-------------------------------------------------------------------------------------------|


D||-------------------------------------------------------------------------------------------|
A||-------------------------------------------------------------------------------------------|
F||--18---18-18---18-18-18-18---18-18---16-16-16-19---19-19---19-19-19-18---18-18---18-18-18--|
C||--x----x--x----x--x--x--x----x--x----x--x--x--x----x--x----x--x--x--x----x--x----x--x--x---|
G||--16---16-16---16-16-16-16---16-16---14-14-14-17---17-17---17-17-17-16---16-16---16-16-16--|
C||-------------------------------------------------------------------------------------------|


D||----------------------------------------------------------------------------------------------|
A||----------------------------------------------------------------------------------------------|
F||--14---14-14---14-14-14-14---14-14---14-14-14-18---18-18---18-18-18-14---14-14-12---12-12-12--|
C||--x----x--x----x--x--x--x----x--x----x--x--x--x----x--x----x--x--x--x----x--x--x----x--x--x---|
G||--12---12-12---12-12-12-12---12-12---12-12-12-16---16-16---16-16-16-12---12-12-11---11-11-11--|
C||----------------------------------------------------------------------------------------------|


Guitar 2:
D||-------------------------------------------------------------------------------------------|
A||-------------------------------------------------------------------------------------------|
F||--11---11-11---11-11-11-11---11-11---13-13-13-14---14-14---14-14-14-14---14-14---14-14-14--|
C||--11---11-11---11-11-11-11---11-11---14-14-14-14---14-14---14-14-14-14---14-14---14-14-14--|
G||--9----9--9----9--9--9--9----9--9----11-11-11-12---12-12---12-12-12-12---12-12---12-12-12--|
C||-------------------------------------------------------------------------------------------|


D||-------------------------------------------------------------------------------------------|
A||-------------------------------------------------------------------------------------------|
F||----------------------------------------------10---10-10---10-10-10-10---10-10-------------|
C||--16---16-16---16-16-16-16---16-16---16-16-16-11---11-11---11-11-11-11---11-11-------------|
G||--12---12-12---12-12-12-12---12-12---12-12-12-8----8--8----8--8--8--8----8--8---\\pick\\---|
C||--12---12-12---12-12-12-12---12-12---12-12-12------------------------------------\\slide\\-|


D||-------------------------------------------------------------------------------------------|
A||-------------------------------------------------------------------------------------------|
F||--11---11-11---11-11-11-11---11-11---13-13-13-14---14-14---14-14-14-14---14-14---14-14-14--|
C||--11---11-11---11-11-11-11---11-11---14-14-14-14---14-14---14-14-14-14---14-14---14-14-14--|
G||--9----9--9----9--9--9--9----9--9----11-11-11-12---12-12---12-12-12-12---12-12---12-12-12--|
C||-------------------------------------------------------------------------------------------|


D||----------------------------------------------------------------------------------------------|
A||----------------------------------------------------------------------------------------------|
F||--13---13-13---13-13-13-13---13-13---13-13-13-10---10-10---10-10-10-10---10-10---10-10-10-10--|
C||--14---14-14---14-14-14-14---14-14---14-14-14-11---11-11---11-11-11-11---11-11---11-11-11-11--|
G||--12---12-12---12-12-12-12---12-12---12-12-12-8----8--8----8--8--8--8----8--8----8--8--8--8---|
C||----------------------------------------------------------------------------------------------|


Guitar 1/2:
D||--------------------------|
A||--------------------------|
F||--------------------------|
C||--4------2------7------0--|
G||--4------2------7------0--|
C||--4------2------7------0--|





*****************************
-Tablature Legend-

 h   hammer-on
 p   pull-off
 b   bend
 pb  pre-bend
 r   release bend
 ~   hold / vibrato
 .   palm mute
 /   slide up
 \   slide down
 *   pinch harmonic
 '   natural harmonic
 x   mute note
 T   tap

*****************************

            
            
Suggest correction
Creating personal tab
Creating personal tab
You can edit any tab online and save it as your Personal.

You can edit, replace or remove any tab part or add personal notes – all changes will be seen only by you.

Personal tabs can be accessed anytime from any device, even offline.
Learn more »
Give kudos to tab author, rate the tab!
1 2 3 4 5
comments
print report bad tab
2 comments total.
0 reply
GhastGaming 10 Jul 19, 2017 06:59 PM

I thought they didnt play this album in drop C?

0 reply
Joshua Garcia [tm] 5,579 Jul 19, 2017 09:04 PM

You'd be surprised by some of the crazy tunings they use for this album. :P

They directly say so here, in case you don't believe me: https://youtu.be/sy80RQwg0-A?t=4m11s

guest
You may want to rate the tab now too:
select rating
Wanna post a correction for this tab? Suggest correction