Oops, an error
Loading. Please wait.

Arrivals tab

4,707 views 15 this week
2 commentsread comments
1 2 3 4 5
x 4
add to favorites
×
Save as Personal and add changes to this tab that will be seen only by you. Learn more ›
×
You can save this tab as Personal to edit and correct it or add notes. All changes will be seen only by you. Learn more »
launch autoscroll
font size
0
reset
how to read this tab
guitar tuner
edit
Autoscroll
slow
fast
+/-
esc
set tempo
stop
Tabbed by: Joshua Garcia (joshuag523@aol.com)

Tabs for the song: Arrivals by Silverstein
Please rate and let me know if you have any corrections. Thank you.


**For my tab of the whole album, go here:
http://tabs.ultimate-guitar.com/s/silverstein/this_is_how_the_wind_shifts_album_tab.htm **


Tuning: Half-Step Down (D# G# C# F# A# D#)


Guitar 1:
D#||------------------------------------------------------------------------------|
A#||--------------------------5~--------------------------------------------------|
F#||--5~----------4~----------x-----------2~----------5~----------4~----------2~--|
C#||--x-----------x-----------x-----------x-----------x-----------x-----------x---| x3
G#||--x-----------x-----------3~----------x-----------x-----------x-----------x---|
D#||--5~----------3~----------------------1~----------5~----------3~----------1~--|


D#||------------------------------------------|
A#||--6~----------6~----------5~----------5~--|
F#||--x-----------x-----------x-----------x---|
C#||--x-----------x-----------x-----------x---|
G#||--5~----------5~----------3~----------3~--|
D#||------------------------------------------|


D#||------------------------------------------|
A#||--10~---------10~---------9~----------9~--|
F#||--x-----------x-----------x-----------x---|
C#||--x-----------x-----------x-----------x---|
G#||--8~----------8~----------8~----------8~--|
D#||------------------------------------------|


D#||------|
A#||--5~--|
F#||--x---|
C#||--x---|
G#||--3~--|
D#||------|




Tablature Legend
----------------
 h   hammer-on
 p   pull-off
 b   bend
 pb  pre-bend
 r   release bend
 ~   hold / vibrato
 .   palm mute
 /   slide up
 \   slide down
 *   pinch harmonic
 '   natural harmonic
 x   mute note
 T   tap

            
            
Suggest correction
Creating personal tab
Creating personal tab
You can edit any tab online and save it as your Personal.

You can edit, replace or remove any tab part or add personal notes – all changes will be seen only by you.

Personal tabs can be accessed anytime from any device, even offline.
Learn more »
comments
print report bad tab
2 comments total.
+2 reply
gustavoaraujo9 3,288 Nov 02, 2013 09:08 AM

This is perfect.

I didn't want to change my guitar's tuning, so here is the song in Drop D; maybe someone will find it useful.

e|-----------------------------------|--------------------------------|
B|----------4------------------------|-5-5-4-4-----9-9-8-8-4----------|
G|-4---3-------1-------4---3---1-----|--------------------------------|
D|--------------------------------x3-|--------------------------------|
A|----------2------------------------|-3-3-2-2-----7-7-7-7-2----------|
D|-6---4-------2-------6---4---2-----|--------------------------------|

0 reply
aldenschulte 129 May 21, 2017 03:55 PM

In your second half the 3--5 should be 4--5. Thanks for the awesome tabs guys. Both of them.

e|-----------------------------------|--------------------------------|
B|----------4------------------------|-5-5-4-4-----9-9-8-8-4----------|
G|-4---3-------1-------4---3---1-----|--------------------------------|
D|--------------------------------x3-|--------------------------------|
A|----------2------------------------|-4-4-2-2-----7-7-7-7-2----------|
D|-6---4-------2-------6---4---2-----|--------------------------------|

guest
You may want to rate the tab now too:
select rating
Wanna post a correction for this tab? Suggest correction