Oops, an error
Loading. Please wait.

Arrivals Tab

4,038 views 3 this week
1 commentread comment
1 2 3 4 5
excellent!
x 5
add to favorites
launch autoscroll
font size
0
reset
how to read this tab
guitar tuner
Autoscroll
slow
fast
+/-
esc
set tempo
stop
Help us to improve Ultimate-Guitar.com Take our survey!
×
Author
Difficulty
Tuning
intermediate
D# G# C# F# A# D#
Tabbed by: Joshua Garcia (joshuag523@aol.com)

Tabs for the song: Arrivals by Silverstein
Please rate and let me know if you have any corrections. Thank you.


**For my tab of the whole album, go here:
http://tabs.ultimate-guitar.com/s/silverstein/this_is_how_the_wind_shifts_album_tab.htm **


Tuning: Half-Step Down (D# G# C# F# A# D#)


Guitar 1:
D#||------------------------------------------------------------------------------|
A#||--------------------------5~--------------------------------------------------|
F#||--5~----------4~----------x-----------2~----------5~----------4~----------2~--|
C#||--x-----------x-----------x-----------x-----------x-----------x-----------x---| x3
G#||--x-----------x-----------3~----------x-----------x-----------x-----------x---|
D#||--5~----------3~----------------------1~----------5~----------3~----------1~--|


D#||------------------------------------------|
A#||--6~----------6~----------5~----------5~--|
F#||--x-----------x-----------x-----------x---|
C#||--x-----------x-----------x-----------x---|
G#||--5~----------5~----------3~----------3~--|
D#||------------------------------------------|


D#||------------------------------------------|
A#||--10~---------10~---------9~----------9~--|
F#||--x-----------x-----------x-----------x---|
C#||--x-----------x-----------x-----------x---|
G#||--8~----------8~----------8~----------8~--|
D#||------------------------------------------|


D#||------|
A#||--5~--|
F#||--x---|
C#||--x---|
G#||--3~--|
D#||------|




Tablature Legend
----------------
 h   hammer-on
 p   pull-off
 b   bend
 pb  pre-bend
 r   release bend
 ~   hold / vibrato
 .   palm mute
 /   slide up
 \   slide down
 *   pinch harmonic
 '   natural harmonic
 x   mute note
 T   tap
Suggest correction new What's this?
You can suggest a correction to this tab. Community and Mods will review your correction and vote to approve or reject it.
comments
print report bad tab
1 comment total.
+1 reply
gustavoaraujo9 2,755 wrote on November 2 2013, 01:08 pm

This is perfect.

I didn't want to change my guitar's tuning, so here is the song in Drop D; maybe someone will find it useful.

e|-----------------------------------|--------------------------------|
B|----------4------------------------|-5-5-4-4-----9-9-8-8-4----------|
G|-4---3-------1-------4---3---1-----|--------------------------------|
D|--------------------------------x3-|--------------------------------|
A|----------2------------------------|-3-3-2-2-----7-7-7-7-2----------|
D|-6---4-------2-------6---4---2-----|--------------------------------|

guest
You may want to rate the tab now too:
select rating
Please do not post tabs as comments. Select "correction" instead!