Oops, an error
Loading. Please wait.

Bleeds No More Bass Tab

version 1
version 1

Whole song

Interactive

2,238 views 1 this week
no commentswrite comment
1 2 3 4 5
excellent!
x 2
add to favorites
launch autoscroll
font size
0
reset
guitar tuner
Tab Pro tools
  • play this tab
  • loop segment
  • change instrument
  • show fretboard
  • metronome
Autoscroll
slow
fast
+/-
esc
set tempo
stop
Contributor
Difficulty
Tuning
intermediate
D A D G B E
G|--------------------------------------------------------------|
D|--------------------------------------------------------------|
A|--------------------------------------------------------------|
D|--0--0-0-0-----|10-10-10-10-10-10|-8-8-8-8-8-8-8--8x-7x-5x-7x-|

|   G|---------------------------------------------|
| o D|---------------------------------------------|
| o A|---------------------------------------------|
|   D|---0--0-0-0-0-0-0-0-0-0-0-0-0-0-0-0-0-0------|

    G|---------------------------------------------|
    D|---------------------------------------------|
    A|---1--1-1-1-1-1-1-1-1-1-1-1-1-1-1-1-1-1------|
    D|---------------------------------------------|

    G|---------------------------------------------|
    D|---------------------------------------------|
    A|---3-3-3-3-3-3-3-3-3-3-3-3-3-3-3-3-3-3-3-----|
    D|---------------------------------------------|

    G| ------------------------------------|  |
    D|-------------------------------------| o|
    A|-------------------------------------| o|
    D|---2--2-2-2-2-2--2--2-2-2-2-2--------|  |


G|---------------------------------------------------------------------|
D|---------------------------------------------------------------------| x3
A|--10-10-10-10-10-10---8--8--8--8--8--8------7-7-7-7-7---8--8--8--8---|
D|---------------------------------------------------------------------|

G|------------------------------------------------------------|
D|------------------------------------------------------------|
A|--7--7--7--7---8--8--8--8--12-12-12-12--16-16-16-16---------|
D|------------------------------------------------------------|

G|------------|
D|------------|
A|------------|
D|---0~-------|

Interlude, You don’t Play

G|---------------------------------------------------------------------|
D|---------------------------------------------------------------------| x3
A|--10-10-10-10-10-10---8--8--8--8--8--8------7-7-7-7-7---8--8--8--8---|
D|---------------------------------------------------------------------|

G|------------------------------------------------------------|
D|------------------------------------------------------------|
A|--7--7--7--7---8--8--8--8--12-12-12-12--16-16-16-16---------|
D|------------------------------------------------------------|

G|---------------------------------------------------------------|
D|---------------------------------------------------------------|
A|---------------------------------------------------------------|
D|--0--0-0-0-----|10-10-10-10-10-10|-8-8-8-8-8-8-8--8x-7x-5x-7x--|

G|----------|
D|----------|
A|----------|
D|---0~-----|
comments
We did not receive enough feedback on this tab! Please rate:
print report bad tab
1 2 3 4 5
I want to post or [tab]
guest
You may want to rate the tab now too:
select rating
Please do not post tabs as comments. Select "correction" instead!