Oops, an error
Loading. Please wait.

Bleeds No More Tab

version 1
version 1

Whole song

Interactive

20,816 views 18 this week
10 commentsread comments
1 2 3 4 5
excellent!
x 18
add to favorites
launch autoscroll
font size
0
reset
how to read this tab
guitar tuner
Autoscroll
slow
fast
+/-
esc
set tempo
stop
Help us to improve Ultimate-Guitar.com Take our survey!
×
Silverstein
Bleeds No More
Tabbed By: DarkStar11589 (darkstar11589@msn.com)

DROPPED D TUNING (D A D G B E)

Key:
~   = let the note ring out
..  = palm mute
/   = slide up
\   = slide down
h   = hammer-on
p   = pull-off
<#> = harmonic
x   = mute string

GUITAR 1

O:00
INTRO/CHORUS:     (there's a third guitar playing an octave)
                  (on the A string on the 15th fret here)   (x2)
e|---------------|-----------------|----------------------------|
B|-----------5h6-|-----------------|----------------------------|
G|---------------|-----------------|----------------------------|
D|--0--0-0-0-----|10-10-10-10-10-10|-8-8-8-8-8-8-8--8x-7x-5x-7x-|
A|--0--0-0-0-----|10-10-10-10-10-10|-8-8-8-8-8-8-8--8x-7x-5x-7x-|
D|--0--0-0-0-----|10-10-10-10-10-10|-8-8-8-8-8-8-8--8x-7x-5x-7x-|
P.M.   . . .
                                                             (x2)
e|--------------------------------------------------------------|
B|-----------8h10-----------------------------------------------|
G|--------------------------------------------------------------|
D|--0--0-0-0------10-10-10-10-10-10--8-8-8-8-8-8-8--8x-7x-5x-7x-|
A|--0--0-0-0------10-10-10-10-10-10--8-8-8-8-8-8-8--8x-7x-5x-7x-|
D|--0--0-0-0------10-10-10-10-10-10--8-8-8-8-8-8-8--8x-7x-5x-7x-|
P.M.   . . .

0:21
VERSE:
e|---------------------------------------------|
B|---------------------------------------------|
G|---------------------------------------------|
D|---0--0-0-0-0-0-0-0-0-0-0-0-0-0-0-0-0-0------|
A|---0--0-0-0-0-0-0-0-0-0-0-0-0-0-0-0-0-0------|
D|---0--0-0-0-0-0-0-0-0-0-0-0-0-0-0-0-0-0------|
P.M.    . . . . . . . . . . . . . . . . .

e|---------------------------------------------|
B|---------------------------------------------|
G|---3--3-3-3-3-3-3-3-3-3-3-3-3-3-3-3-3-3------|
D|---3--3-3-3-3-3-3-3-3-3-3-3-3-3-3-3-3-3------|
A|---1--1-1-1-1-1-1-1-1-1-1-1-1-1-1-1-1-1------|
D|---------------------------------------------|
P.M.    . . . . . . . . . . . . . . . . . 

e|---------------------------------------------|
B|---------------------------------------------|
G|---------------------------------------------|
D|---3--3-3-3-3-3-3-3-3-3-3-3-3-3-3-3-3-3------|
A|---3--3-3-3-3-3-3-3-3-3-3-3-3-3-3-3-3-3------|
D|---3--3-3-3-3-3-3-3-3-3-3-3-3-3-3-3-3-3------|
P.M.    . . . . . . . . . . . . . . . . .

e|-------------------------------------|
B|-------------------------------------|
G|-------------------------------------|
D|---2--2-2-2-2-2--2--2-2-2-2-2--------|
A|---2--2-2-2-2-2--2--2-2-2-2-2--------|
D|---2--2-2-2-2-2--2--2-2-2-2-2--------|
P.M.    . . . . .     . . . . .  

e|---------------------------------------------|
B|---------------------------------------------|
G|---------------------------------------------|
D|---0--0-0-0-0-0-0-0-0-0-0-0-0-0-0-0-0-0------|
A|---0--0-0-0-0-0-0-0-0-0-0-0-0-0-0-0-0-0------|
D|---0--0-0-0-0-0-0-0-0-0-0-0-0-0-0-0-0-0------|
P.M.    . . . . . . . . . . . . . . . . .

e|---------------------------------------------|
B|---------------------------------------------|
G|---3--3-3-3-3-3-3-3-3-3-3-3-3-3-3-3-3-3------|
D|---3--3-3-3-3-3-3-3-3-3-3-3-3-3-3-3-3-3------|
A|---1--1-1-1-1-1-1-1-1-1-1-1-1-1-1-1-1-1------|
D|---------------------------------------------|
P.M.    . . . . . . . . . . . . . . . . . 

e|--------------------------------------------|
B|--------------------------------------------|
G|--10-10-10-10-10-10-10-10-10-10-10-10-------|
D|--10-10-10-10-10-10-10-10-10-10-10-10-------|
A|---8--8--8--8--8--8--8--8--8--8--8--8-------|
D|--------------------------------------------|

e|------------------------------|
B|------------------------------|
G|------------------------------|
D|--7-7-7-7-7-7-7-7-7-7-7-7-----|
A|--7-7-7-7-7-7-7-7-7-7-7-7-----|
D|--7-7-7-7-7-7-7-7-7-7-7-7-----|

0:39
INTRO/CHORUS

0:57
POST CHORUS:                                                     (x3)
e|------------------------------------------------------------------|
B|------------------------------------------------------------------|
G|--12-12-12-12-12-12--10-10-10-10-10-10---9-9-9-9-9--10-10-10-10---|
D|---x--x--x--x--x--x---x--x--x--x--x--x---x-x-x-x-x---x--x--x--x---|
A|--10-10-10-10-10-10---8--8--8--8--8--8---7-7-7-7-7---8--8--8--8---|
D|------------------------------------------------------------------|

e|------------------------------------------------------------|
B|------------------------------------------------------------|
G|--9--9--9--9--10-10-10-10--14-14-14-14--18-18-18-18---------|
D|--x--x--x--x---x--x--x--x---x--x--x--x---x--x--x--x---------|
A|--7--7--7--7---8--8--8--8--12-12-12-12--16-16-16-16---------|
D|------------------------------------------------------------|

1:16
INTRO/CHORUS

1:34
(end chorus on this note and let ring)
e|----------|
B|----------|
G|----------|
D|---0~-----|
A|---0~-----|
D|---0~-----|

1:36
INTERLUDE
e|----------------------------------------------------------------|
B|----------------------------------------------------------------|
G|---------5--------5---------------------------------------------|
D|-----3--------3---------3---5--3--2h3-----2---5--3-2--3p2-------|
A|--/5---5---/5---5-----1---1-------------0---0-------------------|
D|----------------------------------------------------------------|

e|----------------------------------------------------------------|
B|----------------------------------------------------------------|
G|---------5--------5---------------------------------------------|
D|-----3--------3---------3---5--3--2h3-----2---5--3-2--3p2-------|
A|--/5---5---/5---5-----1---1-------------0---0-------------------|
D|----------------------------------------------------------------|

e|----------------------------------------------------------------|
B|----------------------------------------------------------------|
G|---------5--------5---------------------------------------------|
D|-----3--------3---------3---5--3--2h3-----2---5--3-2--3p2-------|
A|--/5---5---/5---5-----1---1-------------0---0-------------------|
D|----------------------------------------------------------------|

e|-----------------------------------------------|
B|-----------------------------------------------|
G|---------5--------5---------------------6------|
D|-----3--------3---------3---5--3--2h3---x------|  
A|--/5---5---/5---5-----1---1-------------4------|     
D|-----------------------------------------------|     

2:27
POST CHORUS

2:45
INTRO/CHORUS

3:03
END ON 
e|--------|
B|--------|
G|--------|
D|---0~---|
A|---0~---|
D|---0~---|

GUITAR 2

O:00
INTRO/CHORUS:                             
                                                             (x4)
e|--------------------------------------------------------------|
B|-----------5h6--5-5-5-5-5-5-5-5-5-----------------------------|
G|--------------------------------------------------------------|
D|--0--0-0-0-------------------------8-8-8-8-8-8-8--8x-7x-5x-7x-|
A|--0--0-0-0-------------------------8-8-8-8-8-8-8--8x-7x-5x-7x-|
D|--0--0-0-0-------------------------8-8-8-8-8-8-8--8x-7x-5x-7x-|
P.M.   . . .

0:21
VERSE:
e|---------------------------------------------|
B|---------------------------------------------|
G|---------------------------------------------|
D|---0--0-0-0-0-0-0-0-0-0-0-0-0-0-0-0-0-0------|
A|---0--0-0-0-0-0-0-0-0-0-0-0-0-0-0-0-0-0------|
D|---0--0-0-0-0-0-0-0-0-0-0-0-0-0-0-0-0-0------|
P.M.    . . . . . . . . . . . . . . . . .

e|---------------------------------------------|
B|---------------------------------------------|
G|---3--3-3-3-3-3-3-3-3-3-3-3-3-3-3-3-3-3------|
D|---3--3-3-3-3-3-3-3-3-3-3-3-3-3-3-3-3-3------|
A|---1--1-1-1-1-1-1-1-1-1-1-1-1-1-1-1-1-1------|
D|---------------------------------------------|
P.M.    . . . . . . . . . . . . . . . . . 

e|---------------------------------------------|
B|---------------------------------------------|
G|---------------------------------------------|
D|---3--3-3-3-3-3-3-3-3-3-3-3-3-3-3-3-3-3------|
A|---3--3-3-3-3-3-3-3-3-3-3-3-3-3-3-3-3-3------|
D|---3--3-3-3-3-3-3-3-3-3-3-3-3-3-3-3-3-3------|
P.M.    . . . . . . . . . . . . . . . . .

e|-------------------------------------|
B|-------------------------------------|
G|-------------------------------------|
D|---2--2-2-2-2-2--2--2-2-2-2-2--------|
A|---2--2-2-2-2-2--2--2-2-2-2-2--------|
D|---2--2-2-2-2-2--2--2-2-2-2-2--------|
P.M.    . . . . .     . . . . .  

e|---------------------------------------------|
B|---------------------------------------------|
G|---------------------------------------------|
D|---0--0-0-0-0-0-0-0-0-0-0-0-0-0-0-0-0-0------|
A|---0--0-0-0-0-0-0-0-0-0-0-0-0-0-0-0-0-0------|
D|---0--0-0-0-0-0-0-0-0-0-0-0-0-0-0-0-0-0------|
P.M.    . . . . . . . . . . . . . . . . .

e|---------------------------------------------|
B|---------------------------------------------|
G|---3--3-3-3-3-3-3-3-3-3-3-3-3-3-3-3-3-3------|
D|---3--3-3-3-3-3-3-3-3-3-3-3-3-3-3-3-3-3------|
A|---1--1-1-1-1-1-1-1-1-1-1-1-1-1-1-1-1-1------|
D|---------------------------------------------|
P.M.    . . . . . . . . . . . . . . . . . 

e|--------------------------------------------|
B|--------------------------------------------|
G|--10-10-10-10-10-10-10-10-10-10-10-10-------|
D|--10-10-10-10-10-10-10-10-10-10-10-10-------|
A|---8--8--8--8--8--8--8--8--8--8--8--8-------|
D|--------------------------------------------|

e|------------------------------|
B|------------------------------|
G|--18-18-18-18-18-18-18--------|
D|---x--x--x--x--x--x--x--------|
A|--16-16-16-16-16-16-16--------|
D|------------------------------|

0:39
INTRO/CHORUS

0:57
POST CHORUS  (figure out the strumming yourself)
e|----------------------------------|
B|----------------------------------|
G|---3---------3----5---------------|
D|---3----0----3----5----7----------|
A|---1----0----1----3----7----------|
D|--------0--------------7----------|

1:16
INTRO/CHORUS

1:34
(end chorus on this note and let ring)
e|----------|
B|----------|
G|----------|
D|---0~-----|
A|---0~-----|
D|---0~-----|

1:36
INTERLUDE
(guitar 2 doesn't play so i tabbed out the violin part instead)

e|---5-6-8--6--5--3--1--0--1p0------------------------------|
B|-----------------------------3~----8--6-5-----------------|
G|-------------------------------------------6--7--9--7~----|
D|----------------------------------------------------------|
A|----------------------------------------------------------|
D|----------------------------------------------------------|

e|--------------------------------------------|
B|---8--6-5--------------8--6-5---------------|
G|-----------6~----7~------------6~-----------|
D|--------------------------------------------|
A|--------------------------------------------|
D|--------------------------------------------|

2:27
POST CHORUS

2:45
INTRO/CHORUS

3:03
END ON 
e|--------|
B|--------|
G|--------|
D|---0~---|
A|---0~---|
D|---0~---|
Suggest correction
comments
print report bad tab
10 comments total. Showing first comments.
0 reply
sk8ur666 10 wrote on February 23 2005, 12:00 am

verrry nice

+1 reply
Chuck Tuck 10 wrote on October 9 2006, 09:21 am

he, this is a great tab and a great song, nicely done

+1 reply
Fret_7 10 wrote on December 4 2006, 10:49 am

great tab, no mistakes that i can find....awsome job!

guest
You may want to rate the tab now too:
select rating
Wanna post a correction for this tab? Suggest correction