Oops, an error
Loading. Please wait.

Bleeds No More Bass Tab

version 2
version 2

Whole song

Interactive

1,226 views 1 this week
2 commentsread comments
1 2 3 4 5
please rate
add to favorites
launch autoscroll
font size
0
reset
guitar tuner
Autoscroll
slow
fast
+/-
esc
set tempo
stop
Help us to improve Ultimate-Guitar.com Take our survey!
×
Author
+++++++++++++++++++++++++++++++
| Silverstein- Bleeds No More |
+++++++++++++++++++++++++++++++

Tuning: Drop D (DADG)

"MY HEART BLEEDS NO MORE!!!"

Intro
1.
G|-----------------------------------------------------------------------|
D|-----------------------------------------------------------------------|
A|----------3-333333-1-111111-1-0---0----------3-333333-1-111111-1-0---0-|--x2
D|-0-000000-----------------------5---0-000000-----------------------5---|

Verse
"Powerless I stand..." 
2.
G|-------------------------------------------------------------------------|
D|-------------------------------------------------------------------------|
A|-------------------11111111-11111111-------------------------------------|
D|-00000000-00000000-------------------33333333-33333333-22222222-22222222-|

3.
G|-------------------------------------------------------------------------|
D|-------------------------------------------------------------------------|
A|-------------------11111111-11111111-------------------00000000-00000000-|
D|-00000000-00000000-------------------33333333-33333333-------------------|

Chorus
"My heart bleeds no more..."
4.
G|-----------------------------------------------------------------------|
D|-----------------------------------------------------------------------|
A|----------3-333333-1-111111-1-0---0----------3-333333-1-111111-1-0---0-|--x2
D|-0-000000-----------------------5---0-000000-----------------------5---|

Bridge
5.
G|-------------------------------------------------------------------------|
D|-------------------------------------------------------------------------|
A|-11111111-11111111-11111111-11111111-------------------------------------|
D|-------------------------------------00000000-00000000-00000000-00000000-|

6.
G|-------------------------------------------------------------------------|
D|-------------------------------------------------------------------------|
A|-11111111-11111111-11111111-11111111-33333333-33333333-00000000-00000000-|
D|-------------------------------------------------------------------------|

Chorus
"My heart bleeds no more..."
7.
G|-----------------------------------------------------------------------|
D|-----------------------------------------------------------------------|
A|----------3-333333-1-111111-1-0---0----------3-333333-1-111111-1-0---0-|--x2
D|-0-000000-----------------------5---0-000000-----------------------5---|

Outro
8.
G|-----|
D|-----|
A|-----|
D|-0~--|

"I wanted to..."
9.
G|------------------------------------------------------------|
D|------------------------------------------------------------|
A|-5~--------5~-------1~--------1~--------0~--------0~--------|
D|------------------------------------------------------------|

"You are the worst thing that ever happened to me..."

Bridge
10.
G|-------------------------------------------------------------------------|
D|-------------------------------------------------------------------------|
A|-11111111-11111111-11111111-11111111-------------------------------------|
D|-------------------------------------00000000-00000000-00000000-00000000-|

11.
G|-------------------------------------------------------------------------|
D|-------------------------------------------------------------------------|
A|-11111111-11111111-11111111-11111111-33333333-33333333-00000000-00000000-|
D|-------------------------------------------------------------------------|

Chorus
"My heart bleeds no more..."
12.
G|-----------------------------------------------------------------------|
D|-----------------------------------------------------------------------|
A|----------3-333333-1-111111-1-0---0----------3-333333-1-111111-1-0---0-|--x2
D|-0-000000-----------------------5---0-000000-----------------------5---|

Outro
13.
G|-----|
D|-----|
A|-----|
D|-0~--|

Lyrics:

My heart bleeds no more;
now, it's been turned to stone.
Your stomach feels sick for someone else.
I've broken both my legs falling for you.
Drag me on the ground.

Powerless I stand, tarnished blade, cutting through, pushed into my vein.
Blood still stains my hands.
Sharpening my sense of pain outside

Killing everything off inside.
Make sense of everything you tried to hide,
hide from me.

I wanted to,
convince myself there's nothing else to do.
I wanted to.
Provide you with proof of what you put me through.
I wanted to.
Pretend that it was you.
"you're the worst thing that's ever happend to me"
"dieee"

+++++++++++++++++++++++++++++++++
| RaiLeff                       |
| Underground__Dora@Hotmail.Com |
+++++++++++++++++++++++++++++++++
Suggest correction
Give kudos to tab author, rate the tab!
1 2 3 4 5
comments
print report bad tab
2 comments total.
0 reply
carrotcake 1,997 wrote on June 28 2007, 12:50 pm

I think on the "I wanted to..." part he plays low d's, but idk it's kind of hard to hear

0 reply
RaiLeff 12,882 wrote on June 28 2007, 05:31 pm

Yeah I know lol, i coudnt decide
but

G|-7-------------|
D|---0-----------|
A|-----5---------|
D|-------0-------|

They are all D anyways, you can decide wich one you can play heh
greets

guest
You may want to rate the tab now too:
select rating
Please do not post tabs as comments. Select "correction" instead!