Oops, an error
Loading. Please wait.

Bleeds No More Tab

version 3
version 3

Whole song

Interactive

719 views 1 this week
1 commentread comment
1 2 3 4 5
please rate
add to favorites
launch autoscroll
font size
0
reset
how to read this tab
guitar tuner
Autoscroll
slow
fast
+/-
esc
set tempo
stop
Help us to improve Ultimate-Guitar.com Take our survey!
×
Contributor
Difficulty
intermediate
----------------------------------------------------------------------------
                        Bleeds no more - Silverstein
----------------------------------------------------------------------------
Tabbed by:Tylerwright666
Email:tyler-metal@hotmail.com 
im pretty sure this song is at least 95% rite.
Be nice this is my first tab lol.

Tuning:Standard
 intro: 4X
e|----------------------------------------------------------|
B|--------9/10----------------------------------------------|
G|--------------9-9-9-9-9-9---------------------------------|
D|---2-2--------x-x-x-x-x-x--8-8-8-8-8-8-8-8---7-5-7-8------|
A|---2-2--------7-7-7-7-7-7--8-8-8-8-8-8-8-8---7-5-7-8------|
E|---0-0---------------------6-6-6-6-6-6-6-6---5-3-5-6------|

  verse 1 Play: 1X
e|-------------------------------------------------------------------------|
B|-------------------------------------------------------------------------|
G|-------------------5-5-5-5-5-5-5-5---------------------------------------|
D|--2-2-2-2-2-2-2-2--5-5-5-5-5-5-5-5--5-5-5-5-5-5-5-5--4-4-4-4--3-3-3-3----|
A|--2-2-2-2-2-2-2-2--3-3-3-3-3-3-3-3--5-5-5-5-5-5-5-5--4-4-4-4--3-3-3-3----|
E|--0-0-0-0-0-0-0-0-------------------3-3-3-3-3-3-3-3--2-2-2-2--1-1-1-1----|
P.M.:   . . . . . .    . . . . . . .    . . . . . . .    . . .    . . .
  
 Then after play this 1X. Not totaly sur bout the last 2 power chords sry.
e|-------------------------------------------------------------------------|
B|-------------------------------------------------------------------------|
G|-------------------5-5-5-5-5-5-5-5--9-9-9-9-9-9-9-9----------------------|
D|--2-2-2-2-2-2-2-2--5-5-5-5-5-5-5-5--x-x-x-x-x-x-x-x--8-8-8-8-8-8-8-8-----|
A|--2-2-2-2-2-2-2-2--3-3-3-3-3-3-3-3--7-7-7-7-7-7-7-7--8-8-8-8-8-8-8-8-----|
E|--0-0-0-0-0-0-0-0------------------------------------6-6-6-6-6-6-6-6-----|
p.m.:   . . . . . .    . . . . . . .

 Then play chorus,4X
 
 Then play this 3X:
e|-------------------------------------------------------------------------|
B|-------------------------------------------------------------------------|
G|-------------------------------------------------------------------------|
D|-1212121212121212-1010101010101010--9-9-9-9-9-9-9-9--1010101010101010----|
A|--x-x-x-x-x-x-x-x--x-x-x-x-x-x-x-x--x-x-x-x-x-x-x-x---x-x-x-x-x-x-x-x----|
E|-1010101010101010--8-8-8-8-8-8-8-8--7-7-7-7-7-7-7-7---8-8-8-8-8-8-8-8----|

 Then this once:
e|-------------------------------------------------------------------------|
B|-------------------------------------------------------------------------|
G|-------------------------------------------------------------------------|
D|--9-9-9-9-9-9-9-9-1010101010101010--1414141414141414--1818181818181818---|
A|--x-x-x-x-x-x-x-x--x-x-x-x-x-x-x-x---x-x-x-x-x-x-x-x---x-x-x-x-x-x-x-x---|
E|--7-7-7-7-7-7-7-7--8-8-8-8-8-8-8-8--1212121212121212--1616161616161616---|
 
 Chorus once again..
 
 Violin: played 3X
e|-------------------------------------------------------------------------|
B|-------------------------------------------------------------------------|
G|--14-15-17~---15-14-12-9-10^P9-7~----------------------------------------|
D|-------------------------------------------------------------------------|
A|-------------------------------------------------------------------------|
E|-------------------------------------------------------------------------|
  then this for violin: just once
e|---------------------|
B|---------------------|
G|--17--15-14-9~-------|
D|---------------------|
A|---------------------|
E|---------------------|

  Then play this 3X:
e|-------------------------------------------------------------------------|
B|-------------------------------------------------------------------------|
G|-------------------------------------------------------------------------|
D|-1212121212121212-1010101010101010--9-9-9-9-9-9-9-9--1010101010101010----|
A|--x-x-x-x-x-x-x-x--x-x-x-x-x-x-x-x--x-x-x-x-x-x-x-x---x-x-x-x-x-x-x-x----|
E|-1010101010101010--8-8-8-8-8-8-8-8--7-7-7-7-7-7-7-7---8-8-8-8-8-8-8-8----|

 Then this once:
e|-------------------------------------------------------------------------|
B|-------------------------------------------------------------------------|
G|-------------------------------------------------------------------------|
D|--9-9-9-9-9-9-9-9-1010101010101010--1414141414141414--1818181818181818---|
A|--x-x-x-x-x-x-x-x--x-x-x-x-x-x-x-x---x-x-x-x-x-x-x-x---x-x-x-x-x-x-x-x---|
E|--7-7-7-7-7-7-7-7--8-8-8-8-8-8-8-8--1212121212121212--1616161616161616---|

 Then play chorus 4X except end it in :
e|----|
B|----|
G|----|
D|-2--|
A|-2--|
E|-0--|

    Thats it i hope you liked it thanxs. enjoy later.

| /  slide up
| \  slide down
| h  hammer-on
| p  pull-off
| ~  vibrato
| +  harmonic
| x  Mute note
============================================================================
comments
We did not receive enough feedback on this tab! Please rate:
print report bad tab
1 2 3 4 5
1 comment total.
0 reply
screamo_core 714 wrote on September 22 2009, 06:06 pm

you can't play this song in standard because the song has


--0--
--0--
--0--

chords and you can't play that as

--2--
--2--
--0--

I want to post or [tab]
guest
You may want to rate the tab now too:
select rating
Please do not post tabs as comments. Select "correction" instead!