Oops, an error
Loading. Please wait.

Bleeds No More Tab

version 4
version 4

Whole song

Interactive

69 views 1 this week
no commentswrite comment
1 2 3 4 5
please rate
add to favorites
launch autoscroll
font size
0
reset
how to read this tab
guitar tuner
Autoscroll
slow
fast
+/-
esc
set tempo
stop
Help us to improve Ultimate-Guitar.com Take our survey!
×
Difficulty
Tuning
novice
D A D G B E
Thanks to darkstar11589 for version 1
DROPPED D TUNING (D A D G B E)

Silverstein
When Broken Is Easily Fixed (2003)
Bleeds no more

Key:
~   = let the note ring out
..  = palm mute
h   = hammer-on
p   = pull-off
x   = mute string


Chorus 0:00-0:21
 
Play 2 times
e|--------------------------------------------------------------------|
B|------------5h6-----------------------------------------------------|
G|--------------------------------------------------------------------|
D|---0--0-0-0-------14--14-14--14-14----8--8-8--8-8-8-8-8x-7x-5x-7x---|
A|---0--0-0-0-----0-10--10-10--10-10--0-8--8-8--8-8-8-8-8x-7x-5x-7x---|
D|---0--0-0-0-----0-10--10-10--10-10--0-8--8-8--8-8-8-8-8x-7x-5x-7x---|
P.M.    . . .

Play 2 times
e|---------------------------------------------------------------------|
B|------------8h10-----------------------------------------------------|
G|---------------------------------------------------------------------|
D|---0--0-0-0--------14--14-14--14-14----8--8-8--8-8-8-8-8x-7x-5x-7x---| 
A|---0--0-0-0------0-10--10-10--10-10--0-8--8-8--8-8-8-8-8x-7x-5x-7x---|
D|---0--0-0-0------0-10--10-10--10-10--0-8--8-8--8-8-8-8-8x-7x-5x-7x---|
P.M.    . . .


Verse 0:21-0:39

e|---------------------------------------------------------------------|
B|---------------------------------------------------------------------|
G|------------------------------------3--3-3-3-3-3-3-3-3-3-3-3-3-3-3---|
D|---0--0-0-0-0-0-0-0-0-0-0-0-0-0-0---3--3-3-3-3-3-3-3-3-3-3-3-3-3-3---|
A|---0--0-0-0-0-0-0-0-0-0-0-0-0-0-0---1--1-1-1-1-1-1-1-1-1-1-1-1-1-1---|
D|---0--0-0-0-0-0-0-0-0-0-0-0-0-0-0------------------------------------|
P.M.    . . . . . . . . . . . . . .      . . . . . . . . . . . . . .  


e|-------------------------------------------------------------------|
B|-------------------------------------------------------------------|
G|-------------------------------------------------------------------|
D|---3--3-3-3-3-3-3-3-3-3-3-3-3-3-3---2--2-2-2-2-2-2--2--2-2-2-2-2---|
A|---3--3-3-3-3-3-3-3-3-3-3-3-3-3-3---2--2-2-2-2-2-2--2--2-2-2-2-2---|
D|---3--3-3-3-3-3-3-3-3-3-3-3-3-3-3---2--2-2-2-2-2-2--2--2-2-2-2-2---|
P.M.    . . . . . . . . . . . . . .      . . . . . .     . . . . . 


e|----------------------------------------------------------------------|
B|----------------------------------------------------------------------|
G|------------------------------------3--3-3-3-3-3-3-3-3-3-3-3-3-3-3----|
D|---0--0-0-0-0-0-0-0-0-0-0-0-0-0-0---3--3-3-3-3-3-3-3-3-3-3-3-3-3-3----|
A|---0--0-0-0-0-0-0-0-0-0-0-0-0-0-0---1--1-1-1-1-1-1-1-1-1-1-1-1-1-1----|
D|---0--0-0-0-0-0-0-0-0-0-0-0-0-0-0-------------------------------------|
P.M.    . . . . . . . . . . . . . .      . . . . . . . . . . . . . .  


e|-----------------------------------------------|
B|-----------------------------------------------|
G|--10--10-10--10-10-10-10-10-10-10--10-10-------|
D|--10--10-10--10-10-10-10-10-10-10--10-10-------|
A|--8---8--8---8--8--8--8--8--8--8---8--8--------|
D|-----------------------------------------------|

e|--------------------------------|
B|--------------------------------|
G|--------------------------------|
D|--7--7-7--7-7-7-7-7-7-7-7-7-----|
A|--7--7-7--7-7-7-7-7-7-7-7-7-----|
D|--7--7-7--7-7-7-7-7-7-7-7-7-----|


Chorus 0:39-0:57

Play 2 times
e|--------------------------------------------------------------------|
B|------------5h6-----------------------------------------------------|
G|--------------------------------------------------------------------|
D|---0--0-0-0-------14--14-14--14-14----8--8-8--8-8-8-8-8x-7x-5x-7x---|
A|---0--0-0-0-----0-10--10-10--10-10--0-8--8-8--8-8-8-8-8x-7x-5x-7x---|
D|---0--0-0-0-----0-10--10-10--10-10--0-8--8-8--8-8-8-8-8x-7x-5x-7x---|
P.M.    . . .

Play 2 times
e|---------------------------------------------------------------------|
B|------------8h10-----------------------------------------------------|
G|---------------------------------------------------------------------|
D|---0--0-0-0--------14--14-14--14-14----8--8-8--8-8-8-8-8x-7x-5x-7x---| 
A|---0--0-0-0------0-10--10-10--10-10--0-8--8-8--8-8-8-8-8x-7x-5x-7x---|
D|---0--0-0-0------0-10--10-10--10-10--0-8--8-8--8-8-8-8-8x-7x-5x-7x---|
P.M.    . . .



Post-chorus 0:57-1:16

Play 3 times
e|-----------------------------------------------|
B|-----------------------------------------------|
G|---12--12-12-12-12-12---10--10-10-10-10-10-10--|
D|---x----x--x--x--x--x---x---x--x--x--x--x--x---|
A|---10--10-10-10-10-10---8---8--8--8--8--8--8---|
D|-----------------------------------------------|

e|---------------------------------------------------|
B|---------------------------------------------------|
G|---9--9-9-9-9-9-9---10--10-10-10-10-10-10--9--10---|
D|---x--x-x-x-x-x-x---x---x--x--x--x--x--x---x--x----|
A|---7--7-7-7-7-7-7---8---8--8--8--8--8--8---7--8----|
D|---------------------------------------------------|


Play one time
e|-------------------------------------------|
B|-------------------------------------------|
G|--9--9-9-9-9-9-9---10--10-10-10-10-10-10---|
D|--x--x-x-x-x-x-x---x---x--x--x--x--x--x----|
A|--7--7-7-7-7-7-7---8---8--8--8--8--8--8----|
D|-------------------------------------------|

e|---------------------------------------------------|
B|---------------------------------------------------|
G|---17--17-17-17-17-17-17---18--18-18-18-18-18-18---|
D|---x---x--x--x--x--x--x----x---x--x--x--x--x--x----|
A|---15--15-15-15-15-15-15---16--16-16-16-16-16-16---|
D|---------------------------------------------------|


Chorus 1:16-1:37
 
Play 2 times
e|--------------------------------------------------------------------|
B|------------5h6-----------------------------------------------------|
G|--------------------------------------------------------------------|
D|---0--0-0-0-------14--14-14--14-14----8--8-8--8-8-8-8-8x-7x-5x-7x---|
A|---0--0-0-0-----0-10--10-10--10-10--0-8--8-8--8-8-8-8-8x-7x-5x-7x---|
D|---0--0-0-0-----0-10--10-10--10-10--0-8--8-8--8-8-8-8-8x-7x-5x-7x---|
P.M.    . . .

Play 2 times, but end the second time with                               this
e|---------------------------------------------------------------------|-------|
B|------------8h10-----------------------------------------------------|-------|
G|---------------------------------------------------------------------|-------|
D|---0--0-0-0--------14--14-14--14-14----8--8-8--8-8-8-8-8x-7x-5x-7x---|---0~~~|
A|---0--0-0-0------0-10--10-10--10-10--0-8--8-8--8-8-8-8-8x-7x-5x-7x---|---0~~~|
D|---0--0-0-0------0-10--10-10--10-10--0-8--8-8--8-8-8-8-8x-7x-5x-7x---|---0~~~|
P.M.    . . .


Interlude 1:37-2:28

Play this 3 times
e|----------------------------------------------------------------|
B|----------------------------------------------------------------|
G|---------5--------5---------------------------------------------|
D|-----3--------3---------3---5--3--2h3-----2---5--3-2--3p2-------|
A|---5---5----5---5-----1---1-------------0---0-------------------|
D|----------------------------------------------------------------|

Play this one time
e|-----------------------------------------------|
B|-----------------------------------------------|
G|---------5--------5---------------------6------|
D|-----3--------3---------3---5--3--2h3---x------|  
A|---5---5----5---5-----1---1-------------4------|     
D|-----------------------------------------------| 



Post-chorus 2:28-2:45

Play 3 times
e|-----------------------------------------------|
B|-----------------------------------------------|
G|---12--12-12-12-12-12---10--10-10-10-10-10-10--|
D|---x----x--x--x--x--x---x---x--x--x--x--x--x---|
A|---10--10-10-10-10-10---8---8--8--8--8--8--8---|
D|-----------------------------------------------|

e|----------------------------------------------------|
B|----------------------------------------------------|
G|---9--9-9-9-9-9-9---10--10-10-10-10-10-10---9--10---|
D|---x--x-x-x-x-x-x---x---x--x--x--x--x--x----x--x----|
A|---7--7-7-7-7-7-7---8---8--8--8--8--8--8----7--8----|
D|----------------------------------------------------|


Play one time
e|-------------------------------------------|
B|-------------------------------------------|
G|--9--9-9-9-9-9-9---10--10-10-10-10-10-10---|
D|--x--x-x-x-x-x-x---x---x--x--x--x--x--x----|
A|--7--7-7-7-7-7-7---8---8--8--8--8--8--8----|
D|-------------------------------------------|

e|---------------------------------------------------|
B|---------------------------------------------------|
G|---17--17-17-17-17-17-17---18--18-18-18-18-18-18---|
D|---x---x--x--x--x--x--x----x---x--x--x--x--x--x----|
A|---15--15-15-15-15-15-15---16--16-16-16-16-16-16---|
D|---------------------------------------------------|


Chorus 2:45-3:15
 
Play 2 times
e|--------------------------------------------------------------------|
B|------------5h6-----------------------------------------------------|
G|--------------------------------------------------------------------|
D|---0--0-0-0-------14--14-14--14-14----8--8-8--8-8-8-8-8x-7x-5x-7x---|
A|---0--0-0-0-----0-10--10-10--10-10--0-8--8-8--8-8-8-8-8x-7x-5x-7x---|
D|---0--0-0-0-----0-10--10-10--10-10--0-8--8-8--8-8-8-8-8x-7x-5x-7x---|
P.M.    . . .

Play 2 times, but end the second time with                               this
e|---------------------------------------------------------------------|-------|
B|------------8h10-----------------------------------------------------|-------|
G|---------------------------------------------------------------------|-------|
D|---0--0-0-0--------14--14-14--14-14----8--8-8--8-8-8-8-8x-7x-5x-7x---|---0~~~|
A|---0--0-0-0------0-10--10-10--10-10--0-8--8-8--8-8-8-8-8x-7x-5x-7x---|---0~~~|
D|---0--0-0-0------0-10--10-10--10-10--0-8--8-8--8-8-8-8-8x-7x-5x-7x---|---0~~~|
Suggest correction
What's this?
You can suggest a correction to this tab. Community and Mods will review your correction and vote to approve or reject it.
comments
We did not receive enough feedback on this tab! Please rate:
print report bad tab
1 2 3 4 5
guest
You may want to rate the tab now too:
select rating
Please do not post tabs as comments. Select "correction" instead!