Oops, an error
Loading. Please wait.

Bodies And Words Bass Tab

version 1
version 1

Whole song

Interactive

1,140 views 1 this week
no commentswrite comment
1 2 3 4 5
please rate
add to favorites
launch autoscroll
font size
0
reset
guitar tuner
Tab Pro tools
  • play this tab
  • loop segment
  • change instrument
  • show fretboard
  • metronome
×
Best way to learn
"Bodies And Words"
Autoscroll
slow
fast
+/-
esc
set tempo
stop
Contributor
Tuning
C# G# C# F# A# D#
+++++++++++++++++++++++++++++++++
| Silverstein- Bodies And Words |
+++++++++++++++++++++++++++++++++

Tuning: Drop C# (C#ADG)

Intro
1.
G |-------------------------------------------------|
D |-------------------------------------------------|
A |---------------222~-22-2-2-----------------------|
D#|-0-222~-22-2-2-------------000~-00-0-0-000~-00-0-|

2.
G |----------------------------------------------------|
D |----------------------------------------------------|
A |---------------222~-22-2-2--------------------------|
D#|-0-222~-22-2-2-------------000~-00-0-0-0000-0000-2x-|

3.
G |--------------------------------------|
D |--------------------------------------|
A |----------------------------2222------|--x2
D#|-22-0-2-0-22-0-2-0-22-0-2-0------0000-|

4.
G |-----------|
D |-----------|
A |-11111111x-|
D#|-----------|

Verse
"This conversation always ends..."
5.
G |-------------------------------------------------------------|
D |-------------------------------------------------------------|
A |-------------------------------2~-22-2~--2222----------------|
D#|-2~-22-2~--2222-2~-22-2~--2222----------------0~-00-0~--0000-|

6.
G |--------------------------------------------------------|
D |--------------------------------------------------------|
A |-------------------------------2~-22-2~--2222-4-4-1~----|
D#|-2~-22-2~--2222-2~-22-2~--2222--------------------------|

Chorus
"Maybe you just have to sleep..."
7.
G |------------------------------------------------------------|
D |------------------------------------------------------------|
A |-2x--2-4x--4-6x--6-6-6666-4~--2x--2-4x--4-1-1111111-6666-4~-|
D#|------------------------------------------------------------|

"Better than perfect..."
8.
G |---------------------------------------------------------------------|
D |-------------------4--3----------------------------------------------|
A |-22222222-44444444-------6---4---4h6p4-22222222-22222222-11111111-1x-|
D#|---------------------------------------------------------------------|

Outro
9.
G |-----------------------------------------|
D |-----------------------------------------|
A |----------------------------2222------1x-|
D#|-22-0-2-0-22-0-2-0-22-0-2-0------0000----|

Verse
"Theres no defense left..."
10.
G |-------------------------------------------------------------|
D |-------------------------------------------------------------|
A |-------------------------------2~-22-2~--2222----------------|
D#|-2~-22-2~--2222-2~-22-2~--2222----------------0~-00-0~--0000-|

11.
G |--------------------------------------------------------|
D |--------------------------------------------------------|
A |-------------------------------2~-22-2~--2222-4-4-1~----|
D#|-2~-22-2~--2222-2~-22-2~--2222--------------------------|

Chorus
"Maybe you just have to sleep..."
12.
G |------------------------------------------------------------|
D |------------------------------------------------------------|
A |-2x--2-4x--4-6x--6-6-6666-4~--2x--2-4x--4-1-1111111-6666-4~-|
D#|------------------------------------------------------------|

"Better than perfect..."
13.
G |------------------------------------------------------------------|
D |-------------------4--3-------------------------------------------|
A |-22222222-44444444-------6---4---4h6p4-22222222-22222222-11111111-|
D#|------------------------------------------------------------------|

Outro
14.
G |-------------------------------------------------|
D |-------------------------------------------------|
A |---------------222~-22-2-2-----------------------|
D#|-0-222~-22-2-2-------------000~-00-0-0-000~-00-0-|

15.
G |-----------------------------------------------------------------|
D |-----------------------------------------------------------------|
A |---------------222~-22-2-2-------------444444444444-444444444444-|
D#|-0-222~-22-2-2-------------000~-00-0-0---------------------------|

Bridge
16.
G |----------------------------------------------------------------|
D |----------------------------------------------------------------|
A |----------------------------------------------------4-4-4\1-1-1-|--x4
D#|-2~-xxxx-4~-5~-7~-0~-xxxx-4~-5~-7~-2~-xxxx-4~-5~-7~-------------|

"And words..."
17.
G |-------------------------------------|
D |-------------------------------------|
A |-4-4-4\1-1-1-4-4-4\1-1-1-4-4-4\1-1-1-|
D#|-------------------------------------|

Chorus
"Maybe you just have to sleep..."
18.
G |------------------------------------------------------------|
D |------------------------------------------------------------|
A |-2x--2-4x--4-6x--6-6-6666-4~--2x--2-4x--4-1-1111111-6666-4~-|
D#|------------------------------------------------------------|

"Better than perfect..."
19.
G |---------------------------------------------------------------------|
D |-------------------4--3----------------------------------------------|
A |-22222222-44444444-------6---4---4h6p4-22222222-22222222-11111111-1x-|
D#|---------------------------------------------------------------------|

Outro
20.
G |------|
D |------|
A |------|
D#|-0-2x-|

Lyrics:

This conversation always ends with goodbyes
Your standing here behind the door
Your waiting with your robe

Maybe you just have to sleep
In someone else's bed
Maybe you just have to keep
Searching for something
Better than perfect, which you know will never exist
Its cut and drawn

Theres no defense left
Look what love is
You know this
The clock is running down on me
Theres no way I can win

I knew this all along
I loved you anyways
Despite all your deceit
Think about if you would be faithful
How I would have felt
Now all we have left are bodies and words
I can't be your boy forever

+++++++++++++++++++++++++++++++++
| RaiLeff                       |
| Underground__Dora@Hotmail.Com |
+++++++++++++++++++++++++++++++++
comments
We did not receive enough feedback on this tab! Please rate:
print report bad tab
1 2 3 4 5
I want to post or [tab]
guest
You may want to rate the tab now too:
select rating
Please do not post tabs as comments. Select "correction" instead!