Oops, an error
Loading. Please wait.

Bodies And Words Tab

version 1
version 1

Intro

Whole song

Interactive

3,835 views 1 this week
1 commentread comment
1 2 3 4 5
please rate
add to favorites
launch autoscroll
font size
0
reset
how to read this tab
guitar tuner
Tab Pro tools
  • play this tab
  • loop segment
  • change instrument
  • show fretboard
  • metronome
×
Best way to learn
"Bodies And Words"
Autoscroll
slow
fast
+/-
esc
set tempo
stop
Difficulty
novice
d|7p0--------7p0-----7p0--------7p0-----7p0--------7p0-----7p0--------7p0----|
a|---8p07h8p0---8p0-0---8p07h8p0---8p0-0---8p07h8p0---8p0-0---8p07h8p0---8p0-|
f|---------------------------------------------------------------------------|
c|---------------------------------------------------------------------------|
g|---------------------------------------------------------------------------|
c|---------------------------------------------------------------------------|

d|--7p0--------7p0-----7p0--------7p0-----7p0--------7p0-----7p0--------7p0--|
a|-0---8p07h8p0---8p0-0---8p07h8p0---8p0-0---8p07h8p0---8p0-0---8p07h8p0---8-|
f|---------------------------------------------------------------------------|
c|---------------------------------------------------------------------------|
g|---------------------------------------------------------------------------|
c|---------------------------------------------------------------------------|

d|----7p0--------7p0--------------------------------------------------------|
a|p0-0---8p07h8p0---8p0-0---------------------------------------------------|
f|--------------------------------------------------------------------------|
c|--------------------------------------------------------------------------|
g|--------------------------------------------------------------------------|
c|--------------------------------------------------------------------------|

this is the real way how to play silversteins new song bodies and words and i am 110%
that this is the way you play it i listened to the song about four five times so i got it
enjoy oh and if anyone has any corrections email me at luckyanderson@hotmail.com and 
theres nothing wrong with this tab enjoy
comments
We did not receive enough feedback on this tab! Please rate:
print report bad tab
1 2 3 4 5
1 comment total.
0 reply
SilversteinFan0 wrote on August 9 2007, 12:10 pm

wowzaa... i lernt this on bass... i think ill keep this song on bass not guitar :P

I want to post or [tab]
guest
You may want to rate the tab now too:
select rating
Please do not post tabs as comments. Select "correction" instead!