Oops, an error
Loading. Please wait.

Bodies And Words Tab

version 1
version 1

Intro

Whole song

Interactive

7,185 views 1 this week
11 commentsread comments
1 2 3 4 5
accurate
x 10
add to favorites
launch autoscroll
font size
0
reset
how to read this tab
guitar tuner
Tab Pro tools
  • play this tab
  • loop segment
  • change instrument
  • show fretboard
  • metronome
Autoscroll
slow
fast
+/-
esc
set tempo
stop
Contributor
Difficulty
intermediate
-----------------------------------------------------------------
Bodies And Words - Silverstein
-----------------------------------------------------------------
Email: enjoi_globe_sk8er_guy@yahoo.com
Tuning: DADGBe

Intro: Guitar 1 (9x)
e|-6p0-----------6p0-----|
B|-----7p0-6h7p0-----7p0-|
G|-----------------------|
D|-----------------------|
A|-----------------------|
D|-----------------------|

Intro: Guitar 2
e|------------------------------------------------|
B|------------------------------------------------|
G|--------x-4~---x-6~---x-6~----------x-4~---x-6~-|
D|-x-1~---x-4~---x-6~---x-6~---x-1~---x-4~---x-6~-|
A|-x-1~---x-2~---x-4~---x-4~---x-1~---x-2~---x-4~-|
D|-x-1~------------------------x-1~---------------|

Fill: Guitar 1 & 2
e|------------|
B|------------|
G|-66666666-6-|
D|-66666666-6-|
A|-44444444-4-|
D|------------|
PM ........

PreVerse: Guitar 1 & 2
e|--------------------------------------------------------------------------------|
B|--------------------------------------------------------------------------------|
G|--------------------------4444-6666--------------------------4444-6666-77777777-|
D|-11-1-1-111-1-1-111-1-1--14444-6666-11-1-1-111-1-1-111-1-1--14444-6666-77777777-|
A|-11-1-1-111-1-1-111-1-1--12222-4444-11-1-1-111-1-1-111-1-1--12222-4444-55555555-|
D|-11-1-1-111-1-1-111-1-1--1----------11-1-1-111-1-1-111-1-1--1-------------------|
PM .. . . ... . . ... . .  .          .. . . ... . . ... . .  .

Guitar 1 & 2
e|-6p0-----------6p0-----|
B|-----7p0-6h7p0-----7p0-|
G|-----------------------|
D|-----------------------|
A|-----------------------|
D|-----------------------|

Verse: Guitar 1 & 2
e|-------------------------------------------------------------------------------------|
B|-------------------------------------------------------------------------------------|
G|-------------------------------------------4-44-4---------------6-66-6---------------|
D|-1-11-1-------4-3-----1-11-1-------4-3-----4-44-4-------8-6-----6-66-6-------6-4-----|
A|-1-11-1-4-6-4-----4-6-1-11-1-4-6-4-----4-6-2-22-2-6-8-6-----6-8-4-44-4-6-8-6-----4-6-|
D|-1-11-1---------------1-11-1---------------------------------------------------------|
PM   ..                   ..                   ..                   ..

e|------------------------------------------------------------------------|
B|------------------------------------------------------------------------|
G|-------------------------------------------4-44-4---------------6-66-3~-|
D|-1-11-1-------4-3-----1-11-1-------4-3-----4-44-4-------8-6-----6-66-3~-|
A|-1-11-1-4-6-4-----4-6-1-11-1-4-6-4-----4-6-2-22-2-6-8-6-----6-8-4-44-1~-|
D|-1-11-1---------------1-11-1--------------------------------------------|
PM   ..                   ..                   ..                   ..

Chorus: Guitar 1 & 2
e|-----------------------------------------------------|
B|-----------------------------------------------------|
G|-4--4-6--6-8--8-6666-6-4---4--4-6--6-33333333-8888-6-|
D|-4--4-6--6-8--8-6666-6-4---4--4-6--6-33333333-8888-6-|
A|-2--2-4--4-6--6-4444-4-2---2--2-4--4-11111111-6666-4-|
D|-----------------------------------------------------|

Continued: Guitar 1 & 2
e|---------------------------------------------------------------|
B|---------------------------------------------------------------|
G|-44444444-66666666-8--6--4--3--4--44444444-44444444-66666666-6-|
D|-44444444-66666666-8--6--4--3--4--44444444-44444444-66666666-6-|
A|-22222222-44444444-6--4--2--1--2--22222222-22222222-44444444-4-|
D|---------------------------------------------------------------|

PreVerse: Guitar 1 & 2
e|------------------------------------|
B|------------------------------------|
G|--------------------------4444-6666-|
D|-11-1-1-111-1-1-111-1-1--14444-6666-|
A|-11-1-1-111-1-1-111-1-1--12222-4444-|
D|-11-1-1-111-1-1-111-1-1--1----------|
PM .. . . ... . . ... . .  .

Guitar 1 & 2
e|-6p0-----------6p0-----|
B|-----7p0-6h7p0-----7p0-|
G|-----------------------|
D|-----------------------|
A|-----------------------|
D|-----------------------|

Verse: Guitar 1 & 2
e|-------------------------------------------------------------------------------------|
B|-------------------------------------------------------------------------------------|
G|-------------------------------------------4-44-4---------------6-66-6---------------|
D|-1-11-1-------4-3-----1-11-1-------4-3-----4-44-4-------8-6-----6-66-6-------6-4-----|
A|-1-11-1-4-6-4-----4-6-1-11-1-4-6-4-----4-6-2-22-2-6-8-6-----6-8-4-44-4-6-8-6-----4-6-|
D|-1-11-1---------------1-11-1---------------------------------------------------------|
PM   ..                   ..                   ..                   ..

e|------------------------------------------------------------------------|
B|------------------------------------------------------------------------|
G|-------------------------------------------4-44-4---------------6-66-3~-|
D|-1-11-1-------4-3-----1-11-1-------4-3-----4-44-4-------8-6-----6-66-3~-|
A|-1-11-1-4-6-4-----4-6-1-11-1-4-6-4-----4-6-2-22-2-6-8-6-----6-8-4-44-1~-|
D|-1-11-1---------------1-11-1--------------------------------------------|
PM   ..                   ..                   ..                   ..

Chorus: Guitar 1 & 2
e|-----------------------------------------------------|
B|-----------------------------------------------------|
G|-4--4-6--6-8--8-6666-6-4---4--4-6--6-33333333-8888-6-|
D|-4--4-6--6-8--8-6666-6-4---4--4-6--6-33333333-8888-6-|
A|-2--2-4--4-6--6-4444-4-2---2--2-4--4-11111111-6666-4-|
D|-----------------------------------------------------|

Continued: Guitar 1 & 2
e|-------------------------------------------------------------|
B|-------------------------------------------------------------|
G|-44444444-66666666-8--6--4--3--4--44444444-44444444-66666666-|
D|-44444444-66666666-8--6--4--3--4--44444444-44444444-66666666-|
A|-22222222-44444444-6--4--2--1--2--22222222-22222222-44444444-|
D|-------------------------------------------------------------|

Bridge: Guitar 1 (7x)
e|-6p0-----------6p0-----|
B|-----7p0-6h7p0-----7p0-|
G|-----------------------|
D|-----------------------|
A|-----------------------|
D|-----------------------|

Bridge: Guitar 2
e|------------------------------------------------|
B|------------------------------------------------|
G|--------x-4~---x-6~---x-6~----------x-4~---x-6~-|
D|-x-1~---x-4~---x-6~---x-6~---x-1~---x-4~---x-6~-|
A|-x-1~---x-2~---x-4~---x-4~---x-1~---x-2~---x-4~-|
D|-x-1~------------------------x-1~---------------|

Fill: Guitar 1
e|-6~----------7~-------------|
B|----------------------------|
G|----------------------------|
D|----------------------------|
A|----------------------------|
D|----------------------------|

Fill: Guitar 2
e|----------------------------|
B|----------------------------|
G|----------------------------|
D|-11111111-11111111-11111111-|
A|-11111111-11111111-11111111-|
D|-11111111-11111111-11111111-|
PM ........ ........ ........

Interlude: Guitar 1 & 2 (2x)
e|----------------------------------------------------------------------------|
B|----------------------------------------------------------------------------|
G|----------------------------------------------------------66666666-33333333-|
D|-1-1111-------------0-0000-------------1-1111-------------66666666-33333333-|
A|-1-1111-------------0-0000-------------1-1111-------------44444444-11111111-|
D|-1-1111-1h3-3h4-4h6-0-0000-1h3-3h4-4h6-1-1111-1h3-3h4-4h6-------------------|
PM   ....               ....               ....

Interlude: Guitar 1 & 2 (1x)
e|----------------------------------------------------------------------------|
B|----------------------------------------------------------------------------|
G|----------------------------------------------------------44444444-33333333-|
D|-1-1111-------------0-0000-------------1-1111-------------44444444-33333333-|
A|-1-1111-------------0-0000-------------1-1111-------------22222222-11111111-|
D|-1-1111-1h3-3h4-4h6-0-0000-1h3-3h4-4h6-1-1111-1h3-3h4-4h6-------------------|
PM   ....               ....               ....

Interlude: Guitar 1 & 2 (1x)
e|----------------------------------------------------------------------------|
B|----------------------------------------------------------------------------|
G|----------------------------------------------------------66666666-33333333-|
D|-1-1111-------------0-0000-------------1-1111-------------66666666-33333333-|
A|-1-1111-------------0-0000-------------1-1111-------------44444444-11111111-|
D|-1-1111-1h3-3h4-4h6-0-0000-1h3-3h4-4h6-1-1111-1h3-3h4-4h6-------------------|
PM   ....               ....               ....

PreChorus: Guitar 1 & 2 (3x)
e|-------------------|
B|-------------------|
G|-66666666-33333333-|
D|-66666666-33333333-|
A|-44444444-11111111-|
D|-------------------|

Chorus: Guitar 1 & 2
e|-----------------------------------------------------|
B|-----------------------------------------------------|
G|-4--4-6--6-8--8-6666-6-4---4--4-6--6-33333333-8888-6-|
D|-4--4-6--6-8--8-6666-6-4---4--4-6--6-33333333-8888-6-|
A|-2--2-4--4-6--6-4444-4-2---2--2-4--4-11111111-6666-4-|
D|-----------------------------------------------------|

Continued: Guitar 1 & 2
e|-------------------------------------------------------------|
B|-------------------------------------------------------------|
G|-44444444-66666666-8--6--4--3--4--44444444-44444444-66666666-|
D|-44444444-66666666-8--6--4--3--4--44444444-44444444-66666666-|
A|-22222222-44444444-6--4--2--1--2--22222222-22222222-44444444-|
D|-------------------------------------------------------------|

Outro: Guitar 1 & 2
e|-6p0-------------|
B|-----7p0-6h7-----|
G|-----------------|
D|-------------1-1-|
A|-------------1-1-|
D|-------------1-1-|
comments
print report bad tab
11 comments total. Showing first comments.
0 reply
carrotcake wrote on June 28 2007, 12:44 pm

do you already have this cd or something

0 reply
carrotcake wrote on June 28 2007, 12:48 pm

nevermind, it's on it's on itunes.... i think

0 reply
rodgab3 wrote on June 28 2007, 01:42 pm

awesome tab man, i saw them play this song live a few weeks ago, this sounds pretty good man.

I want to post or [tab]
guest
You may want to rate the tab now too:
select rating
Please do not post tabs as comments. Select "correction" instead!