Oops, an error
Loading. Please wait.

Bodies And Words Tab

version 2
version 2

Intro

Whole song

Interactive

5,248 views 6 this week
1 commentread comment
1 2 3 4 5
excellent!
x 2
add to favorites
launch autoscroll
font size
0
reset
how to read this tab
guitar tuner
Tab Pro tools
  • play this tab
  • loop segment
  • change instrument
  • show fretboard
  • metronome
Autoscroll
slow
fast
+/-
esc
set tempo
stop
Contributor
Difficulty
intermediate
                          Silverstein
                         Bodies & Words
                           

Tabbed By ::  lackofcolor

Intro::

Guitar One
D#|-7-0-----------7-0-----------|
A#|-----8-0-7-8-0-----8-0-0-----|
F#|-----------------------------|   X9
C#|-----------------------------|
G#|-----------------------------|
C#|-----------------------------|

Guitar Two
Scratch + Note every repeat of guitar one [ starts 3rd time ]

D#|-----|-----|-----|-----|-----|-----|-----|-----|-----|---|
A#|-----|-----|-----|-----|-----|-----|-----|-----|-----|---|
F#|-----|-----|-----|---5-|-----|-----|-----|---5-|-----|---|
C#|-----|-----|-x-2-|-x-5-|-x-0-|-x-0-|-x-2-|-x-5-|-x-0-|---|
G#|-----|-----|-x-2-|-x-3-|-x-0-|-x-0-|-x-2-|-x-3-|-x-0-|---|
C#|-----|-----|-x-2-|-x---|-x-0-|-x-0-|-x-2-|-x---|-x-0-|---|

Pre Verse ::

Guitar One
D#|------------------------------------|
A#|------------------------------------|
F#|-------------------------------2----|
C#|---000000000000000000000000----1----|
G#|---000000000000000000000000---------|
C#|---000000000000000000000000---------|

Pre Verse 2 ::

Guitar One
D#|-------------------------------------------|    |--------------|
A#|-------------------------------------------|    |--------------|
F#|--------------------------------5555-------|    |-2-2-2-2-2-2-2|
C#|-2-2-0-2-0-2-2-0-2-0-2-2-0-2-0--5555-00000-| X2 |-1-1-1-1-1-1-1|
G#|-2-2-0-2-0-2-2-0-2-0-2-2-0-2-0--3333-00000-|    |--------------|
C#|-2-2-0-2-0-2-2-0-2-0-2-2-0-2-0-------00000-|    |--------------|

Guitar Two  [ after all of guitar one ]
D#|---7-0-----------7-0-------------------|
A#|-------8-0-7-8-0-----8-0---------------|
F#|---------------------------------------|
C#|---------------------------------------|
G#|---------------------------------------|
C#|---------------------------------------|
Guitar Three  [ same time as Guitar two ]
D#|--10-0--------------10-0---------------|
A#|-------12-0-10-12-0------10-0----------|
F#|---------------------------------------|
C#|---------------------------------------|
G#|---------------------------------------|
C#|---------------------------------------|
Verse ::

Guitar One
D#|-------------------------------------------------------|
A#|-------------------------------------------------------|
F#|-------------------------------------------------------|
C#|--2-2-x-x-2--5-4-2-4-2-0-2--2-2-x-x-2--5-4-2-4-2-0-2---|
G#|--2-2-x-x-2-----------------2-2-x-x-2------------------|
C#|--2-2-x-x-2-----------------2-2-x-x-2------------------|

Guitar Two
D#|-------------------------------------------------------|
A#|-------------------------------------------------------|
F#|-------------------------------------------------------|
C#|--2-2-x-x-2--5-4-2-4-2-0-2--2-2-x-x-2--5-4-2-4-2-0-2---|
G#|--2-2-x-x-2-----------------2-2-x-x-2------------------|
C#|--2-2-x-x-2-----------------2-2-x-x-2------------------| 

                         Continued

Guitar One
D#|-------------------------------------------------------|
A#|-------------------------------------------------------|
F#|--5-5-x-x-5--------------------------------------------|
C#|--5-5-x-x-5--5-4-2-4-2-0-2--0-0-x-x-0--5-4-2-4-2-0-2---|
G#|--3-3-x-x-3-----------------0-0-x-x-0------------------|
C#|----------------------------0-0-x-x-0------------------|

Guitar Two
D#|-------------------------------------------------------|
A#|-------------------------------------------------------|
F#|--5-5-x-x-5--4-2-0-2-------------------4-2-0-2---------|
C#|--5-5-x-x-5----------5-4-5--0-0-x-x-0----------5-4-5---|
G#|--3-3-x-x-3-----------------0-0-x-x-0------------------|
C#|----------------------------0-0-x-x-0------------------|

                         Continued

Guitar One
D#|-------------------------------------------------------|
A#|-------------------------------------------------------|
F#|-------------------------------------------------------|
C#|--2-2-x-x-2--5-4-2-4-2-0-2--2-2-x-x-2--5-4-2-4-2-0-2---|
G#|--2-2-x-x-2-----------------2-2-x-x-2------------------|
C#|--2-2-x-x-2-----------------2-2-x-x-2------------------|

Guitar Two
D#|-------------------------------------------------------|
A#|-------------------------------------------------------|
F#|---------------------------------------4-2-0-2---------|
C#|--2-2-x-x-2--5-4-2-4-2-0-2--2-2-x-x-2----------5-4-5---|
G#|--2-2-x-x-2-----------------2-2-x-x-2------------------|
C#|--2-2-x-x-2-----------------2-2-x-x-2------------------|

                         Continued


Guitar One
D#|-------------------------------------------------------------|
A#|-------------------------------------------------------------|
F#|-5-5-x-x-5------------------------4---4-4-4-4-4-4------------|
C#|-5-5-x-x-5--5-4-2-4-2-0-2--0-0-x--4---4-4-4-4-4-4------------|
G#|-3-3-x-x-3-----------------0-0-x--2---2-2-2-2-2-2------------|
C#|---------------------------0-0-x-----------------------------|

Guitar Two
D#|-------------------------------------------------------------|
A#|-------------------------------------------------------------|
F#|-5-5-x-x-5--4-2-0-2---------------4---4-4-4-4-4-4------------|
C#|-5-5-x-x-5----------5-4-5--0-0-x--4---4-4-4-4-4-4------------|
G#|-3-3-x-x-3-----------------0-0-x--2---2-2-2-2-2-2------------|
C#|---------------------------0-0-x-----------------------------|

Chorus ::

Guitar One
D#|--------------------------------------------------------------|
A#|--------------------------------------------------------------|
F#|-5---5--7---7--9----9--9--9-9--9--7--5---5--7--9--4---444444--|
C#|-5---5--7---7--9----9--9--9-9--9--7--5---5--7--9--4---444444--|
G#|-3---3--5---5--7----7--7--7-7--7--5--3---3--5--7--2---222222--|
C#|--------------------------------------------------------------|

Guitar Two
D#|--------------------------------------------------------------|
A#|--------------------------------------------------------------|
F#|-5---5--7---7--9----9--9--9-9--9--7--5---5--7--9--4---444444--|
C#|-5---5--7---7--9----9--9--9-9--9--7--5---5--7--9--4---444444--|
G#|-3---3--5---5--7----7--7--7-7--7--5--3---3--5--7--2---222222--|
C#|--------------------------------------------------------------|

                          Continue

Guitar One
D#|-------------------------------------------------------------------|
A#|----------------------------------12--10--8--7--7------------------|
F#|--9-9-9-9--7----5555555-77777777--12--12--9--7--7----55555555555---|
C#|--x-x-x-x--x----5555555-77777777--10--10--9--7--5----55555555555---|
G#|--7-7-7-7--5----3333333-55555555---------------------33333333333---|
C#|-------------------------------------------------------------------|

Guitar Two
D#|-------------------------------------------------------------------|
A#|----------------------------------12--10--8--7--7------------------|
F#|--9-9-9-9--7----5555555-77777777--12--12--9--7--7----55555555555---|
C#|--x-x-x-x--x----5555555-77777777--10--10--9--7--5----55555555555---|
G#|--7-7-7-7--5----3333333-55555555---------------------33333333333---|
C#|-------------------------------------------------------------------|



Pre Interlude ::
D#|-----------------------|
A#|-----------------------|
F#|-2-2-2-2-2-2-2-2-2-2-2-|
C#|-1-1-1-1-1-1-1-1-1-1-1-|
G#|-----------------------|
C#|-----------------------|

Interlude ::

Guitar One
D#|-------------------------------------------|    
A#|-------------------------------------------|    
F#|--------------------------------5555-------|    
C#|-2-2-0-2-0-2-2-0-2-0-2-2-0-2-0--5555-00000-|  
G#|-2-2-0-2-0-2-2-0-2-0-2-2-0-2-0--3333-00000-|   
C#|-2-2-0-2-0-2-2-0-2-0-2-2-0-2-0-------00000-|    

Guitar Two  [ after all of guitar one ]
D#|---7-0-----------7-0-------------------|
A#|-------8-0-7-8-0-----8-0---------------|
F#|---------------------------------------|
C#|---------------------------------------|
G#|---------------------------------------|
C#|---------------------------------------|
Guitar Three  [ same time as Guitar two ]
D#|--10-0--------------10-0---------------|
A#|-------12-0-10-12-0------10-0----------|
F#|---------------------------------------|
C#|---------------------------------------|
G#|---------------------------------------|
C#|---------------------------------------|

Verse

Chorus

Guitar One
D#|-7-0-----------7-0-----------|
A#|-----8-0-7-8-0-----8-0-0-----|
F#|-----------------------------|   X8
C#|-----------------------------|
G#|-----------------------------|
C#|-----------------------------|

D#|-----|-----|-----|-----|
A#|-----|-----|-----|-----|
F#|-----|---5-|-----|-----|
C#|-x-2-|-x-5-|-x-0-|-x-0-|  X2
G#|-x-2-|-x-3-|-x-0-|-x-0-|
C#|-x-2-|-x---|-x-0-|-x-0-|


Pre - Bridge ::

Guitar one
D#|------------------------------|
A#|------------------------------|
F#|------------------------------|
C#|-00000000000000000000000000---|
G#|-00000000000000000000000000---|
C#|-00000000000000000000000000---|

Guitar Two
D#|------------------------------|
A#|--4~--------7~----8~----------|
F#|------------------------------|
C#|------------------------------|
G#|------------------------------|
C#|------------------------------|

Guitar Three
D#|------------------------------|
A#|--7~--------8~----10~---------|
F#|------------------------------|
C#|------------------------------|
G#|------------------------------|
C#|------------------------------|

Bridge ::

Guitar One
D#|-------------------------------------------------------------------|
A#|-------------------------------------------------------------------|
F#|-------------------------------------------------------------------|
C#|-2-2-2-2---------------0-0-0-0---------------2-2-2-2---------------|
G#|-2-2-2-2---------------0-0-0-0---------------2-2-2-2---------------|
C#|-2-2-2-2--2-4-4-5-5-7--0-0-0-0--4-5-5-7-7-9--2-2-2-2--2-4-4-5-5-7--|

                           Continue              

Guitar One
D#|------------------------|
A#|------------------------|
F#|-7-7-7-7-7--4-4-4-4-4---|
C#|-7-7-7-7-7--4-4-4-4-4---|   X2
G#|-5-5-5-5-5--2-2-2-2-2---|
C#|------------------------|

                           Continue

Guitar one
D#|-------------------------------------------------------------------|
A#|-------------------------------------------------------------------|
F#|-------------------------------------------------------------------|
C#|-2-2-2-2---------------0-0-0-0---------------2-2-2-2---------------|
G#|-2-2-2-2---------------0-0-0-0---------------2-2-2-2---------------|
C#|-2-2-2-2--2-4-4-5-5-7--0-0-0-0--4-5-5-7-7-9--2-2-2-2--2-4-4-5-5-7--|


                          Continue

D#|-------------------------------------------------------------------|
A#|-------------------------------------------------------------------|
F#|-4-4-4-4-4-4-------------------------------------------------------|
C#|-4-4-4-4-4-4-5-5-5-5-5-5--2-2-2-2---------------0-0-0-0------------|
G#|-2-2-2-2-2-2-5-5-5-5-5-5--2-2-2-2---------------0-0-0-0------------|
C#|-------------5-5-5-5-5-5--2-2-2-2--2-4-4-5-5-7--0-0-0-0-4-5-5-7-7-9|

D#|----------------------| |--------------------------------------|
A#|----------------------| |--------------------------------------|
F#|----------------------| |--7-7-7-7-7-7-7---4-4-4-4-4-4-4-4-----| X4
C#|-2-2-2-2--------------| |--7-7-7-7-7-7-7---4-4-4-4-4-4-4-4-----|
G#|-2-2-2-2--------------| |--5-5-5-5-5-5-5---2-2-2-2-2-2-2-2-----|
C#|-2-2-2-2--2-4-4-5-5-7-| |--------------------------------------|


Chorus ::                         



End On ::

Guitar One  [ after all of guitar one ]
D#|---7-0-----------7-0-------------------|
A#|-------8-0-7-8-0-----8-0---------------|
F#|---------------------------------------|
C#|---------------------------------------|
G#|---------------------------------------|
C#|---------------------------------------|
Guitar Two  [ same time as Guitar two ]
D#|--10-0--------------10-0---------------|
A#|-------12-0-10-12-0------10-0----------|
F#|---------------------------------------|
C#|---------------------------------------|
G#|---------------------------------------|
C#|---------------------------------------| 

Guitar Three  [ After Guitar 1 & 2 ]
D#|----------|
A#|----------|
F#|----------|
C#|--0---2---|
G#|--0---2---|
C#|--0---2---|

 
comments
We did not receive enough feedback on this tab! Please rate:
print report bad tab
1 2 3 4 5
1 comment total.
0 reply
guitar_gringo_ wrote on September 3 2007, 12:00 pm

check out guitar_gringo_ s profile........the lead guy is in 3 different bands and it is heard he rocks his face off

I want to post or [tab]
guest
You may want to rate the tab now too:
select rating
Please do not post tabs as comments. Select "correction" instead!