Oops, an error
Loading. Please wait.

Born Dead Bass Tab

853 views 1 this week
no commentswrite comment
1 2 3 4 5
please rate
add to favorites
launch autoscroll
font size
0
reset
guitar tuner
Autoscroll
slow
fast
+/-
esc
set tempo
stop
Help us to improve Ultimate-Guitar.com Take our survey!
×
Author
Tuning
D# G# C# F# A# D#
++++++++++++++++++++++++++
| Silverstein- Born Dead |
++++++++++++++++++++++++++


"We are all sheep..."


Tuning: Half a Step Down (EbADG)



Intro
1.
G||-----------------------------------|
D||-----------------------------------|
A||-------------------------1~--------|
Eb|-0-0x----0-0x----0-0x--------------|

2.
G||---------------------------------------------------------------------|
D||---------------------------------------------------------------------|
A||-------------------------11-111-1----------------------------1111111-|
Eb|-00-000-033-333-355-555-5--------00-000-033-333-3---5555555----------|

3.
G||------------------------------------------------------------------|
D||------------------------------------------------------------------|
A||-------------------------11-111-1-------------------------1-1-1-1-|
Eb|-00-000-033-333-355-555-5--------00-000-033-333-3-5-5-5-5---------|

4.
G||--------------|
D||--------------|
A||--------------|
Eb|-0~--------0x-|

Verse
"You call this a privilege..."
5.
G||-------------------------------------------------------------------|
D||-------------------------------------------------------------------|
A||-------------------------11111111-------------------------11111111-|
Eb|-000x----333x----555x-------------000x----333x----555x-------------|

Pre-Chorus
"So sit behind your desk..."
6.
G||-----------4--------------------------------4----------------------|
D||---4-----66--666---------44-433-3---4-----66--666------------------|
A||-66--666---------444-444----------66--666---------444-444----------|
Eb|----------------------------------------------------------33-322-2-|

Chorus
"We keep on suffering everyday..."
7.
G||------------------------------------------------------------------------|
D||------------------------------------------------------------------------|
A||-22-222-2----44-422-222-2-----1-111-22-222-2----44-4-22-222-2-----1-111-|
Eb|---------00-0-------------3-5---------------00-0--------------3-5-------|

"Dead and rotting bodies..."
8.
G||-------------------------------------------------------------------|
D||-------------------------------------------------------------------|
A||-------------------------11111111-------------------------11111111-|
Eb|-000x----333x----555x-------------000x----333x----555x-------------|

Pre-Chorus
"So flex your muscle..."
9.
G||-----------4--------------------------------4----------------------|
D||---4-----66--666---------44-433-3---4-----66--666------------------|
A||-66--666---------444-444----------66--666---------444-444----------|
Eb|----------------------------------------------------------33-322-2-|

Chorus
"We keep on suffering everyday..."
10.
G||-----------------------------------------------------------------------------------------------|
D||-----------------------------------------------------------------------------------------------|
A||-22-222-2----44-422-222-2-----1-111-22-222-2----44-4-22-222-2-----1-111-----1-111-----1-111-1x-|
Eb|---------00-0-------------3-5---------------00-0--------------3-5-------3-5-------3-5----------|

Bridge
"Dead!"
11.
G||-----------------------------------------------------------------------------|
D||-------------------3h4-4h6p4-3h4p3-----------------------3h4-4h6p4-3h4p3-----|
A||------4h6-44~-2-22-----------------4h6------4h6-44~-2-22-----------------4h6-|
Eb|-0-00----------------------------------0-00----------------------------------|

"We cant escape this..."
12.
G||-----------------------------------------------------------------------------|
D||-------------------3h4-6h8p6-4h6p4-3h4-------------------3h4-6h8p6-4h6p4-3h4-|
A||------4h6-44~-2-22--------------------------4h6-44~-2-22---------------------|
Eb|-0-00----------------------------------0-00----------------------------------|

13.
G||--------------------------------------------------------|
D||--------------------------------------------------------|
A||----------------------------------------------22x-1~----|
Eb|-0x----00x--0x------00x--0x--0x----00x--0x--------------|

14.
G||----------------------------------------------------|
D||----------------------------------------------------|
A||----------------------------------------------------|
Eb|-0x----00x--0x------00x--0x--0x----00x--0x----33-22-|

Chorus
"We keep on suffering everyday..."
15.
G||------------------------------------------------------------------------|
D||------------------------------------------------------------------------|
A||-----------------22-222-2-----1-111-22-222-2----44-4-22-222-2-----1-111-|
Eb|--------------------------3-5---------------00-0--------------3-5-------|

"We keep on suffering everyday..."
16.
G||-----------------------------------------------------------------------------------------------|
D||-----------------------------------------------------------------------------------------------|
A||-22-222-2----44-422-222-2-----1-111-22-222-2----44-4-22-222-2-----1-111-----1-111-----1-111-1x-|
Eb|---------00-0-------------3-5---------------00-0--------------3-5-------3-5-------3-5----------|

Outro
17.
G||---------------------------------------------------------------------|
D||---------------------------------------------------------------------|
A||-------------------------11-111-1----------------------------1111111-|
Eb|-00-000-033-333-355-555-5--------00-000-033-333-3---5555555----------|

18.
G||------------------------------------------------------------------|
D||------------------------------------------------------------------|
A||-------------------------11-111-1-------------------------1-1-1-1-|
Eb|-00-000-033-333-355-555-5--------00-000-033-333-3-5-5-5-5---------|

19.
G||------------|
D||------------|
A||------------|
Eb|-0-0x----0x-|


Please rate thanks!!


Lyrics:

You call this a privilege
No, I call it a right
There's no respect for life
No compromising
Coverage denied 

So sit behind your desk and tell me how I'm supposed to feel inside
You know I'm slowly dying, how long I have left is for you to decide

We keep on suffering everyday
We're victims of opportunity
One nation under God, they said
We are all born dead

Dead and rotting bodies fill the 
Fields in the east
There's no respect for life, it never stops
Is this what makes us free?

So flex your muscle as you barricade the whole world piece by piece
How long until the ocean overflows into our yards and streets?

We are all pawns, we are all sheep, we are all born dead 

We can't escape this
Until we unify as one
I'll fight the sickness
Until my time has come



+++++++++++++++++++++++++++++++++
| Raileff                       |
| Underground__Dora@Hotmail.Com |
+++++++++++++++++++++++++++++++++
Suggest correction
Give kudos to tab author, rate the tab!
1 2 3 4 5
comments
print report bad tab
guest
You may want to rate the tab now too:
select rating
Please do not post tabs as comments. Select "correction" instead!